Give Kudos?
Are you sure you want to give kudos to ChiefKomosakawa?

Add To Songbook?
Are you sure you want to add this song to your songbook?


2,713 bands | 35,112 songs
Search: Register FREE! | Login
Browse Songs:
Browse Bands:
Tool Panel
Discuss This Song

1 2 3 4 5



Kellie Coffey - Texas Plates (Solo)
Submitter: ChiefKomosakawa (1) on 2/9/04
Month Views: 9 | Total Views: 2,456
Help! We need a moderator for this artist. | Report This Song?
Song Tools

Comment

Songbook

Kudos

Show Chords

Print

The fast part at the end might be wrong, but I'm only 13.


E----------------------------------------------------------------------
B-----------------------------------------6-6-6-4-2-2-4br-2------------
G-----------------------------------------6-6-6-6-4-4-6br-4------------
D-----------------------------6-6h8p6-6-8------------------------------
A---------------2-4/6-4--4-6/8-------8---------------------------------
E-15\--2-2-2-2h4-------------------------------------------------------


E------9-9-9------------------9------------------------------11pbr9-11~
B-10bh-------10r---11-9---------------------------------9----------9---
G---------------11--------8bh---8r7p6--------6---------9-9-------------
D-------------------------------------6---6h8-8p6--9h11---11-----------
A------------------------------------------------8---------------------
E----------------------------------------------------------------------


E-11p9-----------------------------------------------------------------
B-----11p9h9-----------------------------------------------------------
G------------11~-------------------------------------------------------
D----------------------------------------------------------------------
A----------------------------------------------------------------------
E----------------------------------------------------------------------
 Comments (click here to add a non-facebook comment)
Home | FAQs | Privacy | Terms | Advertise | Contact
Top 100 Tab Sites