Give Kudos?
Are you sure you want to give kudos to WayneXG95?

Add To Songbook?
Are you sure you want to add this song to your songbook?


2,747 bands | 35,281 songs
Search: Register FREE! | Login
Browse Songs:
Browse Bands:
Tool Panel
Discuss This Song

1 2 3 4 5



Joe Diffie - Honky Tonk Attitude (Intro)
Album: Honky Tonk Attitude (1993)
Submitter: WayneXG95 (1) on 9/7/04
Month Views: 8 | Total Views: 3,753
Sound Byte: Listen
Moderator: Ray Terry | Report This Song?
Song Tools

Comment

Songbook

Kudos

Show Chords

Print

Joe Diffie - Honky Tonk Attitude _ intro

This is a Axehappy tab I just posted it!



INTRO


E--------------------------------------------------------------------
B---------------------5/6-6-6-5/6-6-6-5/6-6-5/6-6-6-6\5p3-5-3--------
G--7-6-5--5-4-3-------6/7-7-7-6/7-7-7-6/7-7-6/7-7-7-7\5p3-5-3b-------
D--7-6-5--5-4-3--3-5-------------------------------------5----5p3-5--
A--5-4-3--3-2-1--3-5-------------------------------------------------
E----------------1-3-------------------------------------------------


E--------------------|
B--------------------|
G--5br-3b------------|
D--------5p3-5-3/5---|
A-----------5--------|
E--------------------|
 Comments (click here to add a non-facebook comment)
Home | FAQs | Privacy | Terms | Advertise | Contact
Top 100 Tab Sites