Give Kudos?
Are you sure you want to give kudos to Adam223?

Add To Songbook?
Are you sure you want to add this song to your songbook?


2,747 bands | 35,282 songs
Search: Register FREE! | Login
Browse Songs:
Browse Bands:
Tool Panel
Discuss This Song

1 2 3 4 5



Joe Diffie - John Deer Green Intro (Intro)
Album: 16 Biggest Hits (2002)
Submitter: Adam223 (1) on 11/7/06
Month Views: 14 | Total Views: 5,832
Moderator: Ray Terry | Report This Song?
Song Tools

Comment

Songbook

Kudos

Show Chords

Print

e:--------------------------------------------
B:--------------------------------------------
G:-----------------------------------5br---3--
D:--3-5----3----5---5---3----5---5br----3-----
A:--3-5----3----5---5---3----5----------------
E:--------------------------------------------


e:-------------------------------------------
B:-------------------------------------------
G:-----------------------------------5---3---
D:--3-5----3----5---5---3----5---5----3------
A:--3-5----3----5---5---3----5---------------
E:-------------------------------------------


e:-------------------------------------------
B:-------------------------------------------
G:-----------------------------------5br---3-
D:--3-5----3----5---5---3----5---5br----3----
A:--3-5----3----5---5---3----5---------------
E:-------------------------------------------


e:--------------------------------------------
B:--------------------------------------------
G:--------------------------5br---3---5br---3-
D:--3-5----3----5---5----5br----3---5br--3----
A:--3-5----3----5---5-------------------------
E:--------------------------------------------
 Comments (click here to add a non-facebook comment)
Home | FAQs | Privacy | Terms | Advertise | Contact
Top 100 Tab Sites