Give Kudos?
Are you sure you want to give kudos to TijuanaToads?

Add To Songbook?
Are you sure you want to add this song to your songbook?


2,713 bands | 35,113 songs
Search: Register FREE! | Login
Browse Songs:
Browse Bands:
Tool Panel
Discuss This Song

1 2 3 4 5



Cross Canadian Ragweed - This Time Around Intro (correct) (Chord)
Album: Garage (2005)
Submitter: TijuanaToads (0) on 8/26/10
Month Views: 8 | Total Views: 3,563
Moderator: Ray Terry | Report This Song?
Song Tools

Comment

Songbook

Kudos

Show Chords

Print

So This is my first Tab guys.
I THink its the correct version of what Cody plays at the beginning of the Song 
and after the Chorus. 
If U like the Tab, please rate it guys.
Enjoy It !! GreetZ Scholle




--------------------------------------------------------------------------
--------------------------------------------------------------------------
--------------------------------------------------------------------------
----------------------4h5-4-0-0h2-0--------------------4h5-4-0-0h2--------
------5----5h7-5---------------------------5------------------------------
--5/7---7------------------------------3/7---7-5-0-3----------------------




After the first Chorus thers a litte differents
Did U see it ?? xD
--------------------------------------------------------------------------
--------------------------------------------------------------------------
--------------------------------------------------------------------------
----------------------4h5-4-0h2-0----------------------4h5-4-0-0h2--------
------5----5h7-5---------------------------5------------------------------
--5/7---7------------------------------3/7---7-5-0-3----------------------
 
 Comments (click here to add a non-facebook comment)
Home | FAQs | Privacy | Terms | Advertise | Contact
Top 100 Tab Sites