Give Kudos?
Are you sure you want to give kudos to mshufeldt?

Add To Songbook?
Are you sure you want to add this song to your songbook?


2,732 bands | 35,202 songs
Search: Register FREE! | Login
Browse Songs:
Browse Bands:
Tool Panel
Discuss This Song

1 2 3 4 5



Mike McClure - Queen Of The Midnight (Solo)
Album: The Burtschi Brothers & The Mike McClure Band (2004)
Submitter: mshufeldt (0) on 6/14/13
Month Views: 1 | Total Views: 1,484
Moderator: aggiekelton | Report This Song?
Song Tools

Comment

Songbook

Kudos

Show Chords

Print

Chords:  Bm   C
         Bm   C
         Bm   C   D

e-----------------------------------------------------10---------------------
B-------------------------10-----------------10b12r10---10b12r10-8-8h10r8----
G----------6-7-9--9b11r9-----9b11r9-7-7h9------------------------------------
D------7-9-------------------------------------------------------------------
A---/9-----------------------------------------------------------------------
E-----------------------------------------------------------------------------

e-----------------------------------
B---7/8\7---------------------------
G---------9-7--9/11\9-7-------------
D------------------------9--7/9\7---
A------------------------------------
E------------------------------------
 Comments (click here to add a non-facebook comment)
Home | FAQs | Privacy | Terms | Advertise | Contact
Top 100 Tab Sites