Give Kudos?
Are you sure you want to give kudos to mshufeldt?

Add To Songbook?
Are you sure you want to add this song to your songbook?


2,732 bands | 35,202 songs
Search: Register FREE! | Login
Browse Songs:
Browse Bands:
Tool Panel
Discuss This Song

1 2 3 4 5



Mike McClure - Light On My Hands (Intro)
Submitter: mshufeldt (0) on 6/14/13
Month Views: 1 | Total Views: 1,729
Moderator: aggiekelton | Report This Song?
Song Tools

Comment

Songbook

Kudos

Show Chords

Print

This is from the Onion album.

x2

e--x--x--x--x---x----------------------------x---------------
B--x--x--x--x---x----------------------------x---------------
G--x--x--x--x---x-9-9-9--9-9-7-9-9-9-7-------x-9-9-9---7---2--
D--x--x--x--x---x-9-9-9--9-9-----------9-7---x-9-9-9---7---2--
A--x--x--x--x---x-7-7-7--7-7-----------------x-7-7-7---5---0--
E--x--x--x--x---x----------------------------x---------------

e---x----------------------------x-------------------
B---x----------------------------x-------------------
G---x-9-9-9--9-9-7-9-9-9-7-------x-9-9-9--x-7--------
D---x-9-9-9--9-9-----------9-7---x-9-9-9--x-7---7----
A---x-7-7-7--7-7-----------------x-7-7-7--x-5---7----
E---x----------------------------x--------------5----
 Comments (click here to add a non-facebook comment)
Home | FAQs | Privacy | Terms | Advertise | Contact
Top 100 Tab Sites