Give Kudos?
Are you sure you want to give kudos to Aggie86?

Add To Songbook?
Are you sure you want to add this song to your songbook?


2,733 bands | 35,228 songs
Search: Register FREE! | Login
Browse Songs:
Browse Bands:
Tool Panel
Discuss This Song

1 2 3 4 5



Jimmy Buffett - Margaritaville (Solo)
Album: Songs You Know by Heart (1990)
Submitter: Aggie86 (0) on 6/26/15
Month Views: 11 | Total Views: 3,570
Moderator: guntemar | Report This Song?
Song Tools

Comment

Songbook

Kudos

Show Chords

Print

The solo is a combination of several instruments, but here's a refreshing arrangement that you can play on acoustic, bluesy or twangy guitar.

E-------------------------|--------------------------
B---7h8-10-10-10-8-10-----|----7h8-10-10-10-8-7------
G-------------------------|--------------------------
D-------------------------|--------------------------
A-------------------------|--------------------------
E-------------------------|--------------------------


E-------------------------|--------------------------
B---7h8-10-10-10-12-10----|---10--8p7-5--------------
G-------------------------|--------------------------
D-------------------------|--------------------------
A-------------------------|--------------------------
E-------------------------|--------------------------


E-------------------------|---------0-0---0----------
B---0---0-3-3-0-3---------|---2---2-----2------------
G-----0-------------------|-----2--------------------
D-------------------------|--------------------------
A-------------------------|--------------------------
E-------------------------|--------------------------


E-------------------------|--------------------------
B--7h8-10-10-7-12-10------|----8p7-8p7---------------
G-------------------------|------------7-------------
D-------------------------|--------------------------
A-------------------------|--------------------------
E-------------------------|--------------------------


E--7-7-7-5-3--------------|------5-5-5-3-2-----------
B--8-8-8-7-5--------------|------7-7-7-5-3-----------
G-------------------------|--------------------------
D-------------------------|--------------------------
A-------------------------|--------------------------
E-------------------------|--------------------------
 Comments (click here to add a non-facebook comment)
Home | FAQs | Privacy | Terms | Advertise | Contact
Top 100 Tab Sites