Give Kudos?
Are you sure you want to give kudos to PierreLeveillee?

Add To Songbook?
Are you sure you want to add this song to your songbook?


2,617 bands | 34,302 songs
Search: Register FREE! | Login
Browse Songs:
Browse Bands:
Tool Panel
Discuss This Song

1 2 3 4 5





Johnny Cash - Wabash Blues(revised) (Chord)
Submitter: PierreLeveillee (2) on 1/11/17
Month Views: 73 | Total Views: 421
Moderator: JDNELSON | Report This Song?
Song Tools

Comment

Songbook

Kudos

Show Chords

Print

WABASH BLUES(REVISED)
Capo First Fret

e----------------------------------------------------------------------------|
D---------------------------------------------------------------------------|
G----------------------------------------------------------------------------|
D------------------222-0-----------0-1--2-2--------------------0-1-2-2------|
A-00----------------------2-0-----4----------2-4-5-4-2-0------4--------------|
E----4-2-0---0-2-4-----------------------------------------------------------|

e----------------------------------------------------------------------------|
D---------------------------------------------------------------------------|
G-------------------222---2-2-22-4-2-----------------------------------------|
D---------------------4-------------4-2--222-3-4--4--444-3-3-2-------0-2-2--|
A-2-4-5-4-2-0----------------------------------------------------22-4--------|
E----------------------------------------------------------------------------|

e----------------------------------------------------------------------------|
D---------------------------------------------------------------------------|
G----------------------------------------222---2--2--22-4-2------------------|
D------------------0-2-2--------------------4--------------4-2-------0-2-2--|
A-2-4-5-4-2-0--22-4--------2-4-5-4-2-0---------------------------22-4--------|
E----------------------------------------------------------------------------|

e---------------------------------------------9------------------------------|
D------------------------------------------9--------------------------------|
G--------------77--8-9-9-----6-8-9-8-6-4--9-----6-7-8-9--9---6-8-9-8-6-4-----|
D---------------------------------------------------------------------------|
A-2-4-5-4-2-0----------------------------------------------------------------|
E----------------------------------------------------------------------------|

e----------------------------------------------------------------------------|
D9--9--10-11-11--11-11-11-11-11--10-10--------------------------------------|
G-10-10-11-12-12--12-12-12-12-12--11-11--77-8-9-10-10--6-8-9--8-6-4----------|
D---------------------------------------------------------------------------|
A----------------------------------------------------------------------------|
E----------------------------------------------------------------------------|

e----------------------------------------------------------------------------|
D---------------------------------------------------------------------------|
G----------------------------------------------------------------------------|
D--0-1-20-20-20-20-20-20-20-2----------------0-1-20-20-20-20-20-20-20-2-----|
A-4----------------------------2-0-------0--4----------------------------2-0-|
E----------------------------------0-2-4-------------------------------------|
                                                                           A
e--------------------------------------------------------------------------0-|
D------------------2-4-2---2--22-4-2--------------------------------------2-|
G-----------------2-------3------------------------------------------------2-|
D-------------0-2--------------------4-2---0-1-20-20-20-20-20-20-20-2-----2-|
A-------0-00-4----------------------------4----------------------------2-0-0-|
E-0-2-4--------------------------------------------------------------------0-|
  
 
 Comments (click here to add a non-facebook comment)
Home | FAQs | Privacy | Terms | Advertise | Contact
Top 100 Tab Sites