Give Kudos?
Are you sure you want to give kudos to axehappy?

Add To Songbook?
Are you sure you want to add this song to your songbook?


2,682 bands | 34,891 songs
Search: Register FREE! | Login
Browse Songs:
Browse Bands:
Tool Panel
Discuss This Song

1 2 3 4 5





Alabama - 5 O'clock 500 (Lead)
Album: The Essential Alabama (2005)
Submitter: axehappy (82) on 2/26/02
Month Views: 14 | Total Views: 5,319
Moderator: mo_freestyle | Report This Song?
Song Tools

Comment

Songbook

Kudos

Show Chords

Print

Alabama - 5 O'Clock 500 (with lead)

By axehappy - axehappy at countrytabs.com

On the lead solos, it sounds as though there are either 2 guitars,
or the guitarist is using a harmonizer pedal.
I couldn't work out which, so I just tabbed the lead part using the
lowest notes.


A     =   x02220                          C     =   x32010

D     =   xx0232                          G     =   320003

D/Db  =   x40232                          D/B   =   x20232

D/A   =   x00232                 

***********************************************************************


A   C   D   A   (x2)
INTRO


     G                     D        A
Just punched the clock and boy am I ready,
D                             A
Walking out the door, headin' home.
    D              E         A                     D
Its time to buckle up again, in my rolling hunk of tin.
             D/Db      D/B     D/A     E
Its quittin' time, the evening race is on.


         A          D        A
Its that 5 o'clock 500 and I run it every day,
                                         D
Pick-up trucks, cars and buses all in my way.
                  E
We've got Darryl, we've got Dale, 
A                        D
Richard, Mark, Rusty and Jeff.
                   D/Db      D/B          D/A    E
Well the boss just dropped a green, we're on our way,
          D          E        A
It's that 5 o'clock 500 every day.


(with riff *1)
A   C   D   A
   

    G               D           A
Now Bubba's runnin' right on my bumper,
D                                 A
Pushin' me but there's nowhere to go.
D             E
Lane changin' left and right,
A                          D
Blowin' horns and blinkin' lights.
             D/Db     D/B   D/A     E
Boy the fast lane has never been so slow.


         A          D        A
Its that 5 o'clock 500 and I run it every day,
                                         D
Pick-up trucks, cars and buses all in my way.
                  E
We've got Darryl, we've got Dale, 
A                        D
Richard, Mark, Rusty and Jeff.
                   D/Db      D/B          D/A    E
Well the boss just dropped a green, we're on our way,
          D          E        A
It's that 5 o'clock 500 every day.


A   C   D   A   (x2)
LEAD SOLO


         G            D              A  
When the cars shut us out we're at a standstill,
D                              A
Heard there's construction up ahead.
D             E 
Won't be long so they say,
A                        D
Soon we'll all be on our way.
             D/Db   D/B D/A     E
Some trucker on the CB     just said,



         A          D        A
Its that 5 o'clock 500 and I run it every day,
                                         D
Pick-up trucks, cars and buses all in my way.
                  E
We've got Darryl, we've got Dale, 
A                        D
Richard, Mark, Rusty and Jeff.
                   D/Db      D/B          D/A    E
Well the boss just dropped a green, we're on our way,
          D          E
It's that 5 o'clock 500 
D          E
5 o'clock 500,
D          E        A
5 o'clock 500 every day.
      C          D          A
Every day, every day, every day.



A   G   D   A    C   D   A   (x2)
LEAD SOLO


***********************************************************************

p   =   pulloff                             b   =   bend

bh  =   bend & hold                         r   =   release bend

h   =   hammer-on                           pbr =   pre-bend & release

/   =   slide up                            \   =   slide down

br  =   bend & release

***********************************************************************


INTRO


   A                C                D                   A

E------------------------------------------------------------|
B-------------------------------------3---3---3--------------|
G---2p0-2p0-2p0-5b---2p0-2p0-2p0-5b---2p0-2p0-2p0-0----------|
D---2p0-2p0-2p0-5b---2p0-2p0-2p0-5b--0---0---0---2-2p0-------|
A--0---0---0---0----3---3---3---3---------------------3b-0---|
E------------------------------------------------------------|



RIFF *1


   A               C                D                   A 

E-----------------------------------------------------------|
B------------------------------------3---3---3--------------|
G---2p0-2p0-2p0-2---2p0-2p0-2p0-5b---2p0-2p0-2p0-0----------|
D---2p0-2p0-2p0-2---2p0-2p0-2p0-5b--0---0---0---2-2p0-------|
A--0---0---0---0---3---3---3---3---------------------3b-0---|
E-----------------------------------------------------------|



1st LEAD SOLO 


   A                C                D                        A

E------12---------------------------------------------------------
B--12bh--12r-10-10--10h12-10---12p10-12p10--10--------------------
G-----------------11----------------------11---9p7-9p7-7----------
D-----------------------------------------------------9--9pbr-7---
A-----------------------------------------------------------------
E-----------------------------------------------------------------

        A           C                 D                       A

E-----------12------14----------------------------------------------
B--5/10-12bh--12r-10--12b-10\---12p10-12p10--10---------------------
G------------------------------------------11---9p7-9p7-7-----------
D------------------------------------------------------9--9p7-9p7-7-
A----------------------------------------------------------------9--
E-------------------------------------------------------------------

              G

E-----------------|
B-----------------|
G-----------------|
D-----------------|
A--9-7------------|
E-----9-7br-5-3---|




2nd LEAD SOLO


   A                G                D                A

E---------------------------------------------------------
B---------------------------------------------------------
G---2p0-2p0-2p0-5b---2p0-2p0-2p0-5b---2p0-2p0-2-0---------
D------------------------------------------------4\2------
A--0---0---0---0------------------------------------3-0---
E-------------------3---3---3---3----2---2---2------------

                       C                   D              

E-----12---12---12---12---15---15---15---15---17---17---17---17-
B--12b--12b--12b--12b--15b--15b--15b--15b--17b--17b--17b--17b---
G---------------------------------------------------------------
D---------------------------------------------------------------
A---------------------------------------------------------------
E---------------------------------------------------------------

   A                                       G  

E--19bh-19-19-19r-19------------------------------------------
B-------------------19-17-------------------------------------
G------------------------16b-14--2p0-0-0h2--2p0-0---2p0-0h2---
D-----------------------------------2-2--------2-2p0---2------
A-------------------------------------------------------------
E-------------------------------------------------------------

  D                     A                                    C  

E-------------------------------------------5---5---5---5---5---5---5-
B----------------------------------------5h7-5h7-5h7-5h7-5h7-5h8-5h8--
G--2p0-0---2p0-0---0h2--2p0-0-----------------------------------------
D-----2-2p0---2-2p0--------2-2p1p0--0---------------------------------
A---------------------------------3b-0--------------------------------
E---------------------------------------------------------------------

                D                     A              

E-----5---5---5----5---5---5---5---5-----5------------|
B--5h8-5h8-5h8--5h7-5h7-5h7-5h7-5h7---5h7--7p5--------|
G---------------------------------------------6\4-2---|
D-----------------------------------------------------|
A-----------------------------------------
 Comments (click here to add a non-facebook comment)
Home | FAQs | Privacy | Terms | Advertise | Contact
Top 100 Tab Sites