Give Kudos?
Are you sure you want to give kudos to DaveWH?

Add To Songbook?
Are you sure you want to add this song to your songbook?


2,987 bands | 36,846 songs
Search: Register FREE! | Login
Browse Songs:
Browse Bands:
Tool Panel
Discuss This Song

1 2 3 4 5



Alabama - My Home's In Alabama (Lead)
Album: My Home's in Alabama (1998)
Submitter: DaveWH (3) on 4/16/03 1 comment
Month Views: 224 | Total Views: 8,070
Moderator: mo_freestyle | Report This Song?
Song Tools

Comment

Songbook

Kudos

Show Chords

Print

"My Home's in Alabama"  by Alabama


h = hammer on         b(#) = bend up to #'s pitch
r = release bend      / = slide up    \ = slide down
p = pulloff


Lead      tabbed by davewh at cox.net


Intro lick

|-----------------------|--5b(6)--(6)r5-------------|--5-/-7--10-\-8--8-|
|-----3---5b(7)-(hold)--|----------------5b(6)r5p3--|-------------------|
|-2h4-------------------|---------------------------|-------------------|
|-----------------------|---------------------------|-------------------|
|-----------------------|---------------------------|-------------------|
|-----------------------|---------------------------|-------------------|


(con't)

|--------------------------|
|-----3--5b(7)--(7)r5p3--3-|
|-2h4----------------------|
|--------------------------|
|--------------------------|
|--------------------------|





Middle of song lead

|--------------|---------5b(7)--5------------------|----------------|
|-----3--5b(7)-|--3---3------------5b(6)r5---3---3-|---------3-\-1--|
|-2h4----------|----4----------------------4---4---|--2-/-4---------|
|--------------|-----------------------------------|----------------|
|--------------|-----------------------------------|----------------|
|--------------|-----------------------------------|----------------|


(con't)

|--------------|
|--------------|
|-0--002--0--2-|
|--------------|
|--------------|
|--------------|




Outro lick

|-------------------------|-5b((7)--5------------------|
|-5b(7)r5--3-5--33--5b(7)-|-----------5b(7)r5--3-----3-|
|-------------------------|----------------------2-4---|
|-------------------------|----------------------------|
|-------------------------|----------------------------|
|-------------------------|----------------------------|

(con't)

|----------------------------------------------------------|
|----3-5-3---5b(7)r5-3--5b(7)r5-3--5b(7)r5-3--5-3---3-5-33-|
|-/4----------------------------------------------4--------|
|----------------------------------------------------------|
|----------------------------------------------------------|
|----------------------------------------------------------|
 Comments (click here to add a non-facebook comment)
Nicely done Dave. Very nice.
-cletus | 1/14/2005
Home | FAQs | Privacy | Terms | Advertise | Contact
Top 100 Tab Sites