Give Kudos?
Are you sure you want to give kudos to axehappy?

Add To Songbook?
Are you sure you want to add this song to your songbook?


2,681 bands | 34,877 songs
Search: Register FREE! | Login
Browse Songs:
Browse Bands:
Tool Panel
Discuss This Song

1 2 3 4 5





Alan Jackson - Burnin The Honky Tonks Down (2nd Solo) (Solo)
Album: What I Do (2004)
Submitter: axehappy (98) on 5/5/05 1 comment
Month Views: 16 | Total Views: 4,788
Sound Byte: Listen
Moderator: Ray Terry | Report This Song?
Song Tools

Comment

Songbook

Kudos

Show Chords

Print

Alan Jackson  -  Burnin The Honky Tonks Down (2nd Solo)

Tabbed by axehappy - axehappy at countrytabs.com


This solo starts at 2:50 into the song.

I think my fast soundbyte for this solo might be a bit slower than the recorded version... 
sorry about that.. I played it from memory and when I just listened to it now, I couldn't be
bothered going back and recording it at a faster tempo :-(


*********************************************************************************************




    E

E------------------------------------------------------------------------
B--------------------------------------------------------------------5-x-
G----------------------------------------------------------------4h6-----
D--/2-2-2-2-2-2----2-----0-----------------------------2---2-4/6---------
A------------------------------4---2---1---0-----2-4-2---4---------------
E----------------0---3/4---3/4---0---0---0---3/4-------------------------

                                   B

E-------12----10---------------------------------------------
B----------------12-12--12---9---9/10---9---7----------------
G--11bh----11-------11b-11br-9--10/11---9---7h8---7/8---7-6--
D-------------------------------------9---x-----x-8/9-x-8-7--
A------------------------------------------------------------
E------------------------------------------------------------

  E                        A                                E                 B            E         

E---------0----0----0----0----0---------3p0---5p0---3p0---0-------------------------------------------
B---------0----0----0----0----0-----3p0-----3-----3-----3---3p0---------------------------------------
G--2p0-2b---2b---2b---2b---2b---2/4-----------------------------3-2p0---2---0-------------------------
D---------------------------------------------------------------------2---2---2p0---------------2---2-
A---------------------------------------------------------------------------------2p1p0-----------4---
E---------------------------------------------------------------------------------------3p0-2/4-------


E----------------------
B--------------5---5---
G--------2-4/6---6-----
D------2---------------
A--2/4-----------------
E----------------------
 Comments (click here to add a non-facebook comment)
Great job Dave, love this song!
-mooman2679 | 5/20/2005
Home | FAQs | Privacy | Terms | Advertise | Contact
Top 100 Tab Sites