Give Kudos?
Are you sure you want to give kudos to WildCard76?

Add To Songbook?
Are you sure you want to add this song to your songbook?


2,616 bands | 34,296 songs
Search: Register FREE! | Login
Browse Songs:
Browse Bands:
Tool Panel
Discuss This Song

1 2 3 4 5





Alan Jackson - Chasin' That Neon Rainbow (intro And Solo) (Intro)
Album: Here In The Real World (2001)
Submitter: WildCard76 (233) on 8/14/03 1 comment
Month Views: 114 | Total Views: 10,387
Moderator: Ray Terry | Report This Song?
Song Tools

Comment

Songbook

Kudos

Show Chords

Print




CHASIN' THAT NEON RAINBOW
Alan Jackson

Intro

Lead guitar is in "Drop D" tuning.

    (G)                             (G)

E---------------------------------------------------------------------------
B---------------------------------------------------------------------------
G---------------------------------------------------------------------------
D---------------------------------------------------------------------------
A---------------------------------------------------------------------------
E--2h3-3--3--2h3-3--3--2h3-3--3--2h3-3--3--2h3-3--3--2h3-3--3--2h3-3--3-----

    (G)                            
 
E----------------------------
B----------------------------
G------------0---------------
D--------0-------------------
A----------------------------
E--2h3-----------------------



First Solo
(0:56)

       (G)                    (C)    (D)      (G)      (C)  (Cmaj7)  (A7)       (D)
E--------------------------------------------------------------------------------------
B----------------0--------------------------------------------------8------------------
G----3p2p0----0-------------------------------------------------------b7-7-6-5p3p0-----
D-----------3---------------------------------7h8p7-5-7-5---------------------------0--
A---------------------0--2-----3--5/7--5--7--------------------------------------------
E------------------3-------------------------------------------------------------------

                                
                 (G)
E---------------------------------------------------------------
B---5--3-------------------------3p0----------------------------
G---5--3h4-----------------------3p0-----------0----------------
D-----------------5~~~~~~----------------3--0-------0-----------
A------------------------------------------------3-----1h2------
E---------------------------------------------------------------
 Comments (click here to add a non-facebook comment)
where is the rest of the song??
-peggyy | 11/1/2003
Home | FAQs | Privacy | Terms | Advertise | Contact
Top 100 Tab Sites