Give Kudos?
Are you sure you want to give kudos to alvarez?

Add To Songbook?
Are you sure you want to add this song to your songbook?


2,985 bands | 36,834 songs
Search: Register FREE! | Login
Browse Songs:
Browse Bands:
Tool Panel
Discuss This Song

1 2 3 4 5



Alan Jackson - Hole In The Wall (Tab)
Album: Who Am I (1994)
Submitter: alvarez (2) on 3/19/02
Month Views: 192 | Total Views: 6,321
Moderator: Ray Terry | Report This Song?
Song Tools

Comment

Songbook

Kudos

Show Chords

Print

 Alan jackson:Tab, Hole inthe wall

  -------------------------------------------------------
  ------------------------------------------------------- 
  -----0h2-----------0---------0-2-----------------------
  -------------0h2----------0----------------------------
  -------------------------------------------------------
  ----------------------3--------------------------------


  -------------------------------------------0-----------
  -------------------------------------------------------
  ------------------0-2-0----------------0---------------
  --------------0------------------0h2-------------------
  ----2--2--2----------------3-3-------------------------
  -------------------------------------------------------

  -----------------0-------------0---------0-------------
  -----------------------------3---------3---------------
  -------------0------------2----------2-----------------
  -------0h2-------------0-----------0-------------------
  ----3--------------------------------------------------
  -------------------------------------------------------

  -------------------------------------------------------
  -------------------------------------------------------
  -------0-----------------------------------------------
  ---0h2--------0--0h2---0-------------------------------
  ----------2-3------------------------------------------
  -------------------------------------------------------
 Comments (click here to add a non-facebook comment)
Home | FAQs | Privacy | Terms | Advertise | Contact
Top 100 Tab Sites