Give Kudos?
Are you sure you want to give kudos to WildCard76?

Add To Songbook?
Are you sure you want to add this song to your songbook?


2,616 bands | 34,298 songs
Search: Register FREE! | Login
Browse Songs:
Browse Bands:
Tool Panel
Discuss This Song

1 2 3 4 5





Alan Jackson - Love's Got A Hold On You (Solo)
Album: Don't Rock The Jukbox (1991)
Submitter: WildCard76 (262) on 12/25/02
Month Views: 76 | Total Views: 6,332
Moderator: Ray Terry | Report This Song?
Song Tools

Comment

Songbook

Kudos

Show Chords

Print

E------------------------------------------------------------------------------------
B------------------------------------------------------------------------------------
G------------------------------------------------------------------------------------
D-------------------------------------------------------------------2-----2----------
A------2----2------2-----2---------------2-----2----4-2---------2-4---2-4----4-2-----
E--2-4--2-4---2-4----2-4---b2-2--0-0-2-4---2-4---2------b3-0-0-----------------------



E------------------------------------------------------------
B------------------------------------------------------------
G------------------------------------------------------------
D---------------------------------------7----7---5-----------
A-------2--------6/7--7--6/7----6/7------------------4---2---
E--3/4----b2--2-------0------0-------------------------------
 Comments (click here to add a non-facebook comment)
Home | FAQs | Privacy | Terms | Advertise | Contact
Top 100 Tab Sites