Give Kudos?
Are you sure you want to give kudos to matellmon?

Add To Songbook?
Are you sure you want to add this song to your songbook?


2,722 bands | 35,151 songs
Search: Register FREE! | Login
Browse Songs:
Browse Bands:
Tool Panel
Discuss This Song

1 2 3 4 5



Alan Jackson - Masterpeice (Chord)
Album: Unknown (1970)
Submitter: matellmon (18) on 2/25/02
Month Views: 4 | Total Views: 3,361
Moderator: Ray Terry | Report This Song?
Song Tools

Comment

Songbook

Kudos

Show Chords

Print


-----------------------|-------------------------------------|
----3------------------|-----------3----------------3--------|
----0^2---0------0-----|-------0---2-------------0--0^2-0----|
------------0^2--------|-----0----------------0--------------|
-----------------------|--------------0-1-2------------------|
-----------------------|--3----------------------------------|
        
----------------0-----|----------0------|-------0------------0-----
----------------3--3--|----------3---3--|-----3----3-------3--3----
--------------0---0-0-|--------0---0---0|---2----2---2---2--------0
----------0^2---------|----0^2----------|-0------------0-------0^2-
------2-3-------------|--3--------------|--------------------------
----------------------|-----------------|--------------------------

--------------------------0-0--|
---------3--------------3-----3|
-------0--------------2--------|
-----0--------0-0^2-0----------|
----------2-3------------------|
---3---------------------------|
CHORDS  4 beets per measure

VERSE|G|G|G|C|D|D|C|G|G|G|G|C|A|A|D|D
CHORUS|G|G|C|C|D|D|G|D|G|G|C|A|G|D|D|G|G   THIS is also the solo   
BRIDGE|Amin|C|G|G|Amin|C|C|D

  
 Comments (click here to add a non-facebook comment)
Home | FAQs | Privacy | Terms | Advertise | Contact
Top 100 Tab Sites