Give Kudos?
Are you sure you want to give kudos to jdomary?

Add To Songbook?
Are you sure you want to add this song to your songbook?


2,725 bands | 35,156 songs
Search: Register FREE! | Login
Browse Songs:
Browse Bands:
Tool Panel
Discuss This Song

1 2 3 4 5



Alan Jackson - Remember When (Intro)
Album: Greatest Hits Vol 2 (2004)
Submitter: jdomary (12) on 12/5/03
Month Views: 28 | Total Views: 17,483
Moderator: Ray Terry | Report This Song?
Song Tools

Comment

Songbook

Kudos

Show Chords

Print

Alan Jackson 

Remember When

Tabbed by: jdomary

There is a guitar and a mandolin playing during the intro to this song and
this is the closest that I can get the intro arranged for one guitar.  
Hope it helps.


E--14h15~-15-14-12--12-14-14h15~---14-15-14p12\10-10~---15-14-15~-----
B---------------------------------------------------------------------
G---------12-11-9-----------------------------------------------------
D---------------------------------------------------------------------
A---------------------------------------------------------------------
E---------------------------------------------------------------------

E----15-14-12---15-14-14h15--14-15-14-12\10-10~-------------------------
B-------------------------------------------------12-13-12h13p12-10~----
G-12-12-11-9------------------------------------------------------------
D-----------------------------------------------------------------------
A-----------------------------------------------------------------------
E-----------------------------------------------------------------------
 Comments (click here to add a non-facebook comment)
Home | FAQs | Privacy | Terms | Advertise | Contact
Top 100 Tab Sites