Give Kudos?
Are you sure you want to give kudos to Koichi Kondo?

Add To Songbook?
Are you sure you want to add this song to your songbook?


2,682 bands | 34,888 songs
Search: Register FREE! | Login
Browse Songs:
Browse Bands:
Tool Panel
Discuss This Song

1 2 3 4 5





Alan Jackson - The Best Keeps Getting Better (Tab)
Album: Freight Train (2010)
Submitter: Koichi Kondo (431) on 8/29/12
Month Views: 18 | Total Views: 5,024
Moderator: Ray Terry | Report This Song?
Song Tools

Comment

Songbook

Kudos

Show Chords

Print

The Best Keeps Getting Better
Written & recorded by Alan Jackson

Intro.:(Bb)      (C)       (Bb)      (C)
E: ----|---------|---------|---------|---------|
B: ----|---------|---------|---------|---------|
G: ----|---------|---------|-------0-|---------|
D: 30--|-------3-|---------|---2-3---|1/2------|
A: --3-|1--3/5---|3--------|3/5------|---------|
E: ----|---------|---------|---------|---------|

(F) We started (Bb)out and life was (F)perfect
I never (Bb)thought our love would (C)change
(F) But years of ups and (Bb)downs made a (F)difference
It's (Bb)not the same as (C)it was yester-(F)day

(F) I don't (Bb)treat you like I (F)used to
You don't look the (Bb)same into my (C) eyes
(F) We thought the (Bb)best would be be-(F)hind us
But the (Bb)best keeps getting (C)better all the (F)time

(Chorus)
(Bb) We learned how to (F)love (Bb) and how to make (F)up
(Bb) And found what it (F)takes to be (C)enough
Like a (Bb) 30-year-old (F)wine, (Bb) hearts inter-(F)twined
The (Bb)best keeps getting (C)better all the (F)time

Inst.: (Bb)      (C)       (Bb)      (C)
E: ----|---------|---------|---------|---------|
B: ----|---------|---------|---------|---------|
G: ----|---------|---------|-------0-|---------|
D: 30--|-- -----3|---------|---2-3---|1/2------|
A: --3-|1--3/5---|3--------|3/5------|---------|
E: ---1|---------|---------|---------|---------|

(F) I love you (Bb)now more than (F)ever
(F) And you appreci-(Bb)ate me more (C) today
(F) Melted to-(Bb)gether, hearts (F)and minds
The (Bb)best keeps getting (C)better all the (F)time

(Chorus)
(Bb) We learned how to (F)love (Bb) and how to make (F)up
(Bb) And found what it (F)takes to be (C)enough
Like a (Bb) 30-year-old (F)wine, (Bb) hearts inter-(F)twined
The (Bb)best keeps getting (C)better all the (F)time

(Tag)
Like a (Bb) 30-year-old (F)wine, (Bb) hearts inter-(F)twined
The (Bb)best keeps getting (C)better all the (F)time
Oh, the (Bb)best keeps getting (C)better all the (F)time (G)|(F)(C)(F) -----
 
 Comments (click here to add a non-facebook comment)
Home | FAQs | Privacy | Terms | Advertise | Contact
Top 100 Tab Sites