Give Kudos?
Are you sure you want to give kudos to axehappy?

Add To Songbook?
Are you sure you want to add this song to your songbook?


2,668 bands | 34,785 songs
Search: Register FREE! | Login
Browse Songs:
Browse Bands:
Tool Panel
Discuss This Song

1 2 3 4 5





Alan Jackson - Too Much Of A Good Thing (Lead)
Album: What I Do (2004)
Submitter: axehappy (115) on 9/6/04 1 comment
Month Views: 14 | Total Views: 5,781
Sound Byte: Listen
Moderator: Ray Terry | Report This Song?
Song Tools

Comment

Songbook

Kudos

Show Chords

Print

Alan Jackson  -  Too Much Of A Good Thing  (lead)

By axehappy  -  axehappy at countrytabs.com


*******************************************************************************


INTRO


E-----------------12--10-----9----9--9----9-7------10-8-10---------------------
B---7h8p7-10--10bh--10--10r-10bh-10-10r-b10---------------10-------------------
G--7-----7--7--------------9-----------------9br-7----------9pbr-7-7-----------
D-----------------------------------------------------------------9---2br-0-0--
A--------------------------------------------------------------------------2---
E------------------------------------------------------------------------------



SOLO


E-----------------12-10----10---10--9----------10-8-10-------------------------
B---7h8p7-10--10bh-----10r-10bh-10-10r-10-------------10-----------------------
G--7-----7--7-------------9--------------9br-7----------9pbr-7-5b--7-5---------
D-------------------------------------------------------------9--7----7p5-3b-0-
A------------------------------------------------------------------------------
E------------------------------------------------------------------------------
 Comments (click here to add a non-facebook comment)
Sounds dead on to me axe great job.
-jt419oh | 10/28/2005
Home | FAQs | Privacy | Terms | Advertise | Contact
Top 100 Tab Sites