Give Kudos?
Are you sure you want to give kudos to axehappy?

Add To Songbook?
Are you sure you want to add this song to your songbook?


2,682 bands | 34,894 songs
Search: Register FREE! | Login
Browse Songs:
Browse Bands:
Tool Panel
Discuss This Song

1 2 3 4 5





Alan Jackson - Where I Come From (Intro)
Album: Greatest Hits Vol 2 (2004)
Submitter: axehappy (100) on 1/14/02 3 comments
Month Views: 19 | Total Views: 12,023
Moderator: Ray Terry | Report This Song?
Song Tools

Comment

Songbook

Kudos

Show Chords

Print

Alan Jackson - Where I Come From (intro)

By axehappy - axehappy at countrytabs.com

***********************************************************************


E---------------------------------------------------------------
B---------------------------------------------------------------
G-------------2-2-2----4--------------2-2-----------------------
D---2------2--2-2-2----4-----2--------2-2----0------2-----------
A---2----2-2--0-0-0--0-2-----2----2---0-0-0h2-2p0---2-----2-----
E--0-2br-0--3b------3----3b-0-2br-0-3b-----------3b-0-2br-0-3b--


E--------------------------------------0----0-------------------|
B--------------------------------------0----0-------------------|
G--2-2-2----------------------2-0------1----1-------------------|
D--2-2-2-----0-----0---0---------2-----2------------------------|
A--0-0-0--0-2-4-3/5-4h5-5p0-3b---------2-----------1h2-1-0------|
E--------3------------------------3b-0-0---0----0---------3b-0--|
 Comments (click here to add a non-facebook comment)
i recomend any type of vintage tube amp with an ibanez tube screamer overdrive pedal
-guitarcooter | 12/3/2003
Brent Mason is a session guitarist for alan jackson and he uses a custom valley arts tele with a MXR dyna comp compression pedal
-guitarcooter | 6/20/2004
brent mason is the best guitar player in the world, and valley arts made a custom model of his original tele, but brent doesnt use the valley arts copy, he uses his original when he is recording. and he doesnt use an MXR dyna comp, he uses a boss CS-3 Compression Sustainer for compression.
-les paul picker | 2/27/2005
Home | FAQs | Privacy | Terms | Advertise | Contact
Top 100 Tab Sites