Give Kudos?
Are you sure you want to give kudos to axehappy?

Add To Songbook?
Are you sure you want to add this song to your songbook?


2,679 bands | 34,861 songs
Search: Register FREE! | Login
Browse Songs:
Browse Bands:
Tool Panel
Discuss This Song

1 2 3 4 5





Alan Jackson - Where Were You (Tab)
Album: Drive (2002)
Submitter: axehappy (105) on 2/2/02 1 comment
Month Views: 14 | Total Views: 16,162
Moderator: Ray Terry | Report This Song?
Song Tools

Comment

Songbook

Kudos

Show Chords

Print

Alan Jackson - Where Were You (picking pattern)

By axehappy - axehappy at countrytabs.com

This doesn't sound as though its played with a capo, so I've tabbed
it using barre chords which are mostly high up the neck.
The chorus sounds as though it is just strummed, so I haven't tabbed
that.
Its not exactly what's played on the recording, but its close enough.

Here are the barre chords I used to play it:


C(add9)     =   81012988               C     =   81010988

G           =   x1012121210            F     =   x81010108

Am          =   577555   

***********************************************************************


INTRO


  C(add9)      

E-------------8-----8--------------------8-----8---------|
B-------8----8-----8-8--8----------8----8-----8-8--8-----|
G--------------------------------------------------------|
D-----12---12----12---12-12------12---12----12---12-12---|
A---10-------------------------10------------------------|
E--8--------------------------8--------------------------|



VERSE


   C                        G                   C        

E---------8-8--------8--------------------------------------8---
B--------8--8-----8----8----------10-10h12-----------8-----8----
G-------9----9------------------12---12---12--------------------
D-----10--------10-10---10----12------------12-----12-12\10-----
A---10----------------------10-------------------10-------------
E--8-----------8------8-------------------------8---------------

   C                        G                   C

E--------8-----------8--------------------------------8-------
B-----8----8------8----8----------10-10h12---------8----8-----
G-------------------------------12---12---12------------------
D---10-10---10--10-10---10----12------------12---10-10---10---
A---------------------------10--------------------------------
E--8------8----8------8-------------------------8------8------

   F              C              F              C

E---------8-----------------------------8----------8-------------
B-----------10----------------8-----------10-------8--8----------
G-----10------10-------9-----9------10------10--------9----------
D---10--10-----------12-12-10-----10--10------------12-12-10-----
A--8---------------10------------8---------------10---------10---
E----------8------8----------------------8------8----------------

   F              C            Am        F            G

E---------8-------------8----------5-----------5------3-----|
B-----------10-------8----8------5---5-------6--6-----3-----|
G-----10------10-------------------------5--5----5----4-----|
D---10--10---------10-10---10---7-7---7--5h7--7-------5-----|
A--8-------8------------------------------------------5-----|
E-----------------8------8-----5----5-----------------3-----|
 Comments (click here to add a non-facebook comment)
perfect tab 4 this song
-jdphantom90 | 2/23/2004
Home | FAQs | Privacy | Terms | Advertise | Contact
Top 100 Tab Sites