Give Kudos?
Are you sure you want to give kudos to Stallion?

Add To Songbook?
Are you sure you want to add this song to your songbook?


2,839 bands | 36,103 songs
Search: Register FREE! | Login
Browse Songs:
Browse Bands:
Tool Panel
Discuss This Song

1 2 3 4 5



Albert Lee - Country Boy (Lead)
Album: Hiding (2004)
Submitter: Stallion (0) on 3/8/02 1 comment
Month Views: 6 | Total Views: 15,259
Moderator: Seandoherty | Report This Song?
Song Tools

Comment

Songbook

Kudos

Show Chords

Print

Albert Lee - Country Boy (Part one)

Transcr i ption by Stallion  ksteberg at tiscali.no

This is the intro riff and the main theme in this song.

To play this song I use a pick and two fingers. The first tree, four bars are actually 
a great exercise for timing pick and fingers.

Good luck!

E------------------|---------------|----------------|--------------|
B---------3--------|---3-----3-----|--------3-----0-|---0--------0-|
G------0----0---0--|-----0-----0---|-----0----0-----|------------0-|
D--4h5---5----5----|-5-----5-----5-|-4h5---5----5---|------------0-|
A------------------|---------------|----------------|-3---1h2------|
E------------------|---------------|----------------|----------3---|


E-----------------|-----------------|-----------------|-------------|
B-----------------|--1---0----------|-----------------|--3-5-3-5/8--|
G----------0------|----3---0-----0--|-3p2p0---2---0-2/|4------------|
D------------2p0--|----------0h2----|-------2---2-----|-------------|
A----0h1h2--------|-----------------|-----------------|-------------|
E--3--------------|-----------------|-----------------|-------------|


E-------0-------0-|---------------|--------------|------------------|
B-3/5-5---3p0-0---|--------0------|--------------|------------------|
G-----------------|--3p2-2---0--0-|-------0----0-|-3p2p0-------0----|
D-----------------|---------------|-0h2-2---0----|-------2p0h2---0--|
A-----------------|---------------|--------------|------------------|
E-----------------|---------------|--------------|------------------|


E-----------------|----3--------|-----------------|-----------------|
B-----------------|----0----0---|-----------------|-----------------|
G--3p2p0----------|----0----0---|-----------------|-------0-------0-|
D--------2p0------|-------------|-----------0-2p0-|-3/5-5---3\2-2---|
A------------1p0--|-------------|----0h1h2--------|-----------------|
E-----------------|--3----3-----|-3---------------|-----------------|


E----------------||
B----------------||        
G-------0--------||
D--0--0----------||
A----------1p0---||     
E----------------||

 Comments (click here to add a non-facebook comment)
Thank you from Russia
-RaitGain | 8/31/2008
Home | FAQs | Privacy | Terms | Advertise | Contact
Top 100 Tab Sites