Give Kudos?
Are you sure you want to give kudos to axehappy?

Add To Songbook?
Are you sure you want to add this song to your songbook?


2,682 bands | 34,894 songs
Search: Register FREE! | Login
Browse Songs:
Browse Bands:
Tool Panel
Discuss This Song

1 2 3 4 5





Alison Krauss - Baby, Now That I've Found You (Tab)
Album: Now That I've Found You: A Collection (1995)
Submitter: axehappy (95) on 2/2/02 3 comments
Month Views: 27 | Total Views: 17,178
Moderator: Ray Terry | Report This Song?
Song Tools

Comment

Songbook

Kudos

Show Chords

Print

Alison Krauss -  Baby, Now That I've Found You (picking pattern)

By axehappy - axehappy at countrytabs.com

Play with capo on first fret.
Picked notes are relative to position of capo.
I have tabbed Intro and Chorus picking patterns in full.
Keep same kind of pattern for verse.

***********************************************************************


INTRO

E------0----0---0---0---0---0---0---0-----0----0---0---0---
B----3-3--3-3---3---3---3---3---3---3---3-3--3-3---0---0---
G---2----2-----0---0---0---0---0---0---2----2-----1---1----
D--0----0-----2---2---0---0---3---3---0----0-----2---2-----
A------------3---3---2---2---1---1-------------------------
E-----------------------------------------------0---0------


E----------------0---0---|
B-----3----------0---0---|
G-----0--2p0----2---2----|
D----0---0--4--2---2-----|
A---2---------0---0------|
E--3----3----------------|



CHORUS


E------0----0---0---0---0---0---0---0-----0----0---0---0---
B----3-3--3-3---3---3---3---3---3---3---3-3--3-3---0---0---
G---2----2-----0---0---0---0---0---0---2----2-----1---1----
D--0----0-----2---2---0---0---3---3---0----0-----2---2-----
A------------3---3---2---2---1---1-------------------------
E-----------------------------------------------0---0------


E---------0---0---0-----0----0---0---0---0---0---0---0---
B-----3---3---0---0---3-3--3-3---3---3---3---3---3---3---
G-----0------2---2---2----2-----0---0---0---0---0---0----
D----0---0--2---2---0----0-----2---2---0---0---3---3-----
A---2---2--0---0--------------3---3---2---2---1---1------
E--3---3-------------------------------------------------


E------0----0---0---0-------3---0---0-----0-----------------0----
B----3-3--3-3---0---0---3---0---0---0---3-3-3-------3-----3-3-3--
G---2----2-----1---1----0------2---2---2-----------0-----2-------
D--0----0-----2---2----0---0--2---2---0-----------2-----0--------
A---------------------2---2--0---0-----------0-2-3----0----------
E------------0---0---3---3---------------------------3-----------

                 
E--------------0---------|
B---------3----3---------|
G--------0-----2---------|
D-------2------0---------|
A--0-2-3----0------------|
E----------3-------------|


 Comments (click here to add a non-facebook comment)
Nice one axehappy! :)
-danielcraggs | 3/2/2004
where is the refrain part?
-whezlee | 4/18/2005
Great Great job as always...Axehappy all I can say is thanks for this tab and all of the rest that you have submitted. You have a very good ear my guitar friend...Thank you!!!
-bluegrass30009 | 11/4/2005
Home | FAQs | Privacy | Terms | Advertise | Contact
Top 100 Tab Sites