Give Kudos?
Are you sure you want to give kudos to axehappy?

Add To Songbook?
Are you sure you want to add this song to your songbook?


2,679 bands | 34,861 songs
Search: Register FREE! | Login
Browse Songs:
Browse Bands:
Tool Panel
Discuss This Song

1 2 3 4 5





Alison Krauss - The Lucky One (picked) (Intro)
Album: Alison Krauss & Union Station - Live (2002)
Submitter: axehappy (105) on 1/6/03 6 comments
Month Views: 183 | Total Views: 23,552
Moderator: Ray Terry | Report This Song?
Song Tools

Comment

Songbook

Kudos

Show Chords

Print

Alison Krauss  -  The Lucky One  (intro)

By axehappy  -  axehappy at countrytabs.com


This isn't exactly what's being played on the recording, this is just my take
on it....kinda my own fingerpicking bit, following the original melody.

Capo on 1st fret to play along with the original.

************************************************************************************


   A                E                F#m             D

E------------------------------------------------------------0h2-------
B--2---2--3\2-0-----0---0--2p0-----------------------3----3------3-----
G----2----------0-----1--------2-1---2---2-4p2----------2----------2---
D---2---2----2---2---2---2----2---2----4-------6-4---0-0-0-0-0--0-0-0--
A--0--0---0----0-------2--------2-----4---4---4---4--------------------
E-------------------0------0---------2--2--2----2----------------------


   A                E                D/F#               A 

E---------------------------------------------2---------------5----|
B--2---2--3\2-0-----0---0--2p0------------3-------3-----2---2------|
G----2----------0-----1--------2-1---2------2---2---2-----2--------|
D---2---2----2---2---2---2----2---2--2h4-4-4-4-4-4-4-4---2---2-----|
A--0--0---0----0-------2--------2-----------------------0--0---0---|
E-------------------0-----0----------------------------------------|


 Comments (click here to add a non-facebook comment)
Thanks axe. Almost exactly what I got
-6stringer | 1/6/2003
Just two notes different

A E F#m D

E------------------------------------------------------------0h2-------
B--2---2--3\2-0-----0---0--2p0-----------------------3----3------3-----
G----2----------2-----1--------2-1---2---2-4p2----------2----------2---
D---2---2----2---2---2---2----2---2----4-------6-4---0-0-0-0-0--0-0-0--
A--0--0---0----0-------2--------2-----4---4---4---4--------------------
E-------------------0------0---------2--2--2----2----------------------


A E D/F# A

E----------------------------------------------2---------------5----|
B-0h2---2--3\2-0-----0---0--2p0------------3-------3-----2---2------|
G-----2----------2-----1--------2-1---2------2---2---2-----2--------|
D----2---2----2---2---2---2----2---2--2h4-4-4-4-4-4-4-4---2---2-----|
A-0----0---0----0-------2--------2-----------------------0--0---0---|
E--------------------0-----0----------------------------------------|



-6stringer | 1/7/2003
Hey guys, I think that the original recording is played with a capo on the 3rd fret. I'd write out the tab but I've never done it and it'd take forever. Anyway, tell me what you think.
-GuitarVB | 7/8/2003
It probably is capoed at the third fret. The Dobro is tuned to an open "G" chord.
-Gillie54 | 7/18/2003
Ron Block plays the intro, break and entire tune capoed at the 3rd fret in open G tuning. Will post the tab in this tuning soon.
-pshenk | 8/2/2003
holy you guys.. Ive been playing for a long time. But fingerpicking seems really difficult to me. Even though i love this song.. I dont think ill be learning it any time soon :[
-erinkushniruk | 1/24/2006
Home | FAQs | Privacy | Terms | Advertise | Contact
Top 100 Tab Sites