Give Kudos?
Are you sure you want to give kudos to axehappy?

Add To Songbook?
Are you sure you want to add this song to your songbook?


2,679 bands | 34,864 songs
Search: Register FREE! | Login
Browse Songs:
Browse Bands:
Tool Panel
Discuss This Song

1 2 3 4 5





Alison Krauss - When You Say Nothing At All (corrected) (Solo)
Album: Now That I've Found You: A Collection (1995)
Submitter: axehappy (115) on 5/18/02 1 comment
Month Views: 26 | Total Views: 14,404
Moderator: Ray Terry | Report This Song?
Song Tools

Comment

Songbook

Kudos

Show Chords

Print

Alison Krauss - When You Say Nothing At All (solo)

By axehappy - axehappy at countrytabs.com


Where I have wrote 'bowed' above a slide in this tab, it means you use 
the volume control on your guitar to swell the note.
Basically, you start the note at less than full volume and as you 
slide the note, you turn the volume up slightly.


***********************************************************************

h   =   hammer-on                            br   =   bend & release

\   =   slide down                           /    =   slide up

p   =   pulloff

***********************************************************************


                                                         bowed
E--------------------------------------------------------------------
B--------11-11-11-11-11-11-11h13-11-----------------------11\9-8-6h8-
G--12h13-12-12-12-12-10-10---------13-12-10-10---8-10br-7--------8---
D--------------------------13-------------------8-------8------------
A-------------------------------------13-11-11-----------------------
E--------------------------------------------------------------------


E----------------------------------------------------------------------
B-6-6--6h8---------------------------------------------11-----------11-
G-7-7-----8----8h10--10/12\10-10\8-8-----8h10-10/12\10-10---10-10------
D----------8h10----------------------8h10-----------------13---10h12---
A----------------------------------------------------------------------
E----------------------------------------------------------------------


E----------11-11h13-11----15p11-------11---|
B--11-11/13-------------11-----13p11-------|
G-----------------------------------13-----|
D------------------------------------------|
A------------------------------------------|
E------------------------------------------|


 Comments (click here to add a non-facebook comment)
I have the real solo exactly how they play it in the song, this one way up on the neck, one of these days i'll learn how to write tab and post it.
-joshkonwinski | 4/1/2005
Home | FAQs | Privacy | Terms | Advertise | Contact
Top 100 Tab Sites