Give Kudos?
Are you sure you want to give kudos to EMRLDEYZS?

Add To Songbook?
Are you sure you want to add this song to your songbook?


2,831 bands | 36,016 songs
Search: Register FREE! | Login
Browse Songs:
Browse Bands:
Tool Panel
Discuss This Song

1 2 3 4 5



Alison Krauss - You Asked Me To (Chord)
Album: Unknown Albums By Alison Krauss (2000)
Submitter: EMRLDEYZS (26) on 1/29/06
Month Views: 13 | Total Views: 4,935
Moderator: Ray Terry | Report This Song?
Song Tools

Comment

Songbook

Kudos

Show Chords

Print

This is a Waylon Jennings Cover

CAPO 1


VERSE:
                 C 
Long ago and far away
                       G
In my old common labor shoes
                             D 
I turned the world all which away
                        G
Just because you asked me to

VERSE:
                   C 
Like unto no other feel
                     G 
Simple love is simple true
                        D 
There's no end to what I'd do
                        G
Just because you asked me to


CHORUS:

                      C
Let the world call me a fool
                                 G 
But if things are right with me and you
                              D 
That's all that matters and I'll do
                   G 
Anything you ask me to


BREAK:  VERSE CHORDS
 (GUITAR SOLO IN THIS BREAK)

|---------|----------------|----------|----------------|
|---------|----------------|----------|----------------|
|-----0-2-|-/4--2p0-2p0----|----------|----------------|
|-0-2-----|-------------2--|-5--------|-(5)----5\-4-2--|
|---------|----------------|----------|----------------|
|---------|----------------|----------|----------------|


|-------|-------------------|----------|-----------------|
|-------|-------------------|----------|------------3-3--|
|-0-----|-0----0----0-------|-0--------|-(0)----2S4------|
|-4S=5--|-5\-4-4\-2-2p0-0---|-0--------|-(0)-------------|
|-------|---------------0h2-|----------|-----------------|
|-------|-------------------|----------|-----------------|

                                    1/2
|---|-3-5S7--7h8-8--|-8p7-5------|--------------------|
|-3-|---------------|----------8-|-7br7---------------|
|---|---------------|------------|---------7-5\-2-----|
|---|---------------|------------|-----------------5--|
|---|---------------|------------|--------------------|
|---|---------------|------------|--------------------|


|-------------|-----------------|-------------|-3---------------|----||
|------3------|-----------------|-------------|-1p0-------------|---o||
|---2-------0-|-/4-----\2p0-2-0-|-------0-----|-----2p0---------|-0--||
|-4-----------|------0----------|----0-----0--|---------2p0-----|-0--||
|-------------|-----------------|-2-----------|-------------3p2-|---o||
|-------------|-----------------|-------------|-----------------|----||


CHORUS:

                       C
Knowing how much I love you
                             G
And after all that I've been through
                          D
I'd turn and walk away from you
                       G
Just because you asked me to

 

BREAK: VERSE CHORDS


END ON  G  

-FADE 
 Comments (click here to add a non-facebook comment)
Home | FAQs | Privacy | Terms | Advertise | Contact
Top 100 Tab Sites