Give Kudos?
Are you sure you want to give kudos to taylor7458?

Add To Songbook?
Are you sure you want to add this song to your songbook?


2,722 bands | 35,151 songs
Search: Register FREE! | Login
Browse Songs:
Browse Bands:
Tool Panel
Discuss This Song

1 2 3 4 5



Bart Crow Band - Wear My Ring (Lead)
Submitter: taylor7458 (0) on 6/16/10 1 comment
Month Views: 20 | Total Views: 12,102
Moderator: residentroadie | Report This Song?
Song Tools

Comment

Songbook

Kudos

Show Chords

Print

Wear my Ring
Bart Crow Band
Tuning Eb Ab Db Gb Bb Eb
Not a 100% but this is what I play live
Tabbed by Jack


Solo 1
------------------------------------------------
----------------------------------------5-------
-----0------0------0------0------0--2/4----4p2p0
-0h2----0h2----0h2----0h2----0h2----------------
------------------------------------------------
------------------------------------------------

------------------------------------------------
------------------------------------------------
---0-0-----------------------------------04p2p0
-2-----2p0---2-2-2-2---2p0-----------0h2--------
-----------2---------2-----2p0---0h2------------
-------------------------------3----------------
                           Solo 2 
-----------------------||-----------------------
-----------------------||-----------------------
--------------------5--||--5-4--2--4-2-0--4-----
-3p2p0--------------5--||-----------------------
-------3p2p0--------5--||-----------------------
-------------5p3p0--3--||-----------------------

------------------------------------------3-----5
-------------------------------------------------
-2-0--------0-----0-----0-----0-----02/4---4/5--
-----20h2----0h2---0h2---0h2---0h2--------------
-------------------------------------------------
-------------------------------------------------


-----7---7--------------------------------------------
------------13-12----12-------------------------------
-5/7---7----------14----14-12--14-12----12----12----12
-------------------------------------14----14----14---
------------------------------------------------------
------------------------------------------------------
Solo 3
-----3------3------3------3------3------3------3--
--------------------------------------------------
-4-5----4-5----4-5----4-5----4-5----4-5----4-5----
--------------------------------------------------
--------------------------------------------------
--------------------------------------------------

--------------------------------------------------
--------------------------------------------------
-5-4--24p2p0---0-2p0----------------------0-----0
--------------2-------2p0--------------0h2---0h2--
--------------------------0-2p0------0------------
--------------------------------3--3--------------


------------3------3-----3-----3-----3-------------
---------------------------------------------------
-----0--2-4----4-5---4-5---4-5---4-5----4\2-0------
-0-2------------------------------------------2-0--
---------------------------------------------------
---------------------------------------------------

----3-----5------7-----7---------------12---------
--------------------------1213p12--12----12-13p12
-/4----/5----/7-----7-----------------------------
--------------------------------------------------
--------------------------------------------------
--------------------------------------------------


--------------------------------------------------------
--12--15--12--13-12----15-------------------------------
--------------------16----16-14-12----12----12----14-16-
-----------------------------------14----14----14-------
--------------------------------------------------------
--------------------------------------------------------
                                                         
---------------------------------------------------------
---------------------------------------------------------
-14---12----12--14--12----12-----------------------------
---------14------------14----14--12-14-12----------------
------------------------------------------14-15-14-12-10-
---------------------------------------------------------
Solo 4
---------------------------------------------------------
---------------------------------------------------------
-------------------------------------------------5p4p2---
-7p5p3-------7p5p3-------7p5p3-------7p5p3---------------
-------7p5p3-------7p5p3-------7p5p3-------7p5p3---------
---------------------------------------------------------

-----------------------------------------------------------
-----------------------------------------------------------
--------5-4-2--------5-4-2--------5-4-2--------------------
--7-5-3--------7-5-3--------7-5-3--------7-5-3---12p10p9h10
-----------------------------------------------------------
-----------------------------------------------------------

-----------------------------------------------------------
-----------------------------------------------------------
-----------------------------------------------------------
-----12p10p9h10-----12p10p9h10-----12p10p9h10----12-12-12--
-12-------------12-------------12-------------12-----------
-----------------------------------------------------------

----------------------------------------------------------
----------------------------------------------------------
----------11-11-11--12-12-12-14-14-14--16-14-12-12-16-14--
-14-14-14-------------------------------------------------
----------------------------------------------------------
----------------------------------------------------------

----------------------------------------------------------
----------------------------------------------------------
--12-1216p14p12-----------------------12-----12---------
-----------------16p14--12-12-12-12-14-12--14-12--10-9----
----------------------------------------------------------
----------------------------------------------------------


-------------------------------------------
-------------------------------------------
---------------------------------------5---
--10-9-10-9-7p5p0----------------------5---
------------------7p5p05p3p0----------5---
--------------------------------7p5p0--3---


 Comments (click here to add a non-facebook comment)
good stuff man a little improv is never bad

-countryFrankx1 | 3/7/2012
Home | FAQs | Privacy | Terms | Advertise | Contact
Top 100 Tab Sites