Give Kudos?
Are you sure you want to give kudos to axehappy?

Add To Songbook?
Are you sure you want to add this song to your songbook?


2,675 bands | 34,833 songs
Search: Register FREE! | Login
Browse Songs:
Browse Bands:
Tool Panel
Discuss This Song

1 2 3 4 5





Bellamy Brothers - More Of You (Tab)
Submitter: axehappy (88) on 2/14/03 1 comment
Month Views: 74 | Total Views: 12,948
Moderator: bigrig1999 | Report This Song?
Song Tools

Comment

Songbook

Kudos

Show Chords

Print

Bellamy Brothers  -  More Of You  (tab)

By axehappy  -  axehappy at countrytabs.com


The chords shown over the lyrics are the basic version
of the strumming....see the tab at the end of the lyrics
for the more 'authentic' version of the verse strumming
and the lead solo.


G     =   320003                   D     =   xx0232

Am    =   x02210                   


************************************************************************


G   D   Am   D   G
INTRO


 G                                D
Hearts, burning like they were on fire.
 Am     D                     G 
Flames, changin our love to desire.
                               D  
Babe, my heart is screamin' to say,
Am    D                    G    D
Girl, we got to go all the way. 


       G                                  D 
I need more of you, changin' my rain into sun,
Am           D                       G    D 
More of you, puttin' my blues on the run. 
       G                                    D
I need more of you, darling, I need more of you.
Am    D                      G 
More, anything less wouldn't do. 


G                           D
We, ain't been together too long, 
 Am      D                       G         
Strange, how did our love get so strong? 
                            D
There's nothing to keep us apart, 
Am  D                      G
We, got to catch up to our hearts. 



       G                                  D
I need more of you, changin' my rain into sun, 
Am           D                       G    D 
More of you, puttin' my blues on the run. 
       G                                    D
I need more of you, darling, I need more of you. 
Am    D                      G   D
More, anything less wouldn't do. 



G   D   Am   D   G   D
INSTRUMENTAL



       G                                  D
I need more of you, changin' my rain into sun, 
Am           D                       G    D 
More of you, puttin' my blues on the run. 
       G                                    D
I need more of you, darling, I need more of you. 
Am    D                      G   D
More, anything less wouldn't do.
       G                                  D
I need more of you, changin' my rain into sun....(fade out)


************************************************************************

h   =   hammer-on                           p   =   pulloff

************************************************************************



STRUMMING IN VERSE AND INTRO (the proper way)


   G  Gsus G    G  Gsus G    D  Dsus D    D  Dsus D    Am Asus Am

E--3-3-3-3-3-3--3-3-3-3-3-3--2-2-3-3-2-2--2-2-3-3-2-2--0-0-0-0-0-0--
B--0-0-1-1-0-0--0-0-1-1-0-0--3-3-3-3-3-3--3-3-3-3-3-3--1-1-3-3-1-1--
G--0-0-0-0-0-0--0-0-0-0-0-0--2-2-2-2-2-2--2-2-2-2-2-2--2-2-2-2-2-2--
D--0-0-0-0-0-0--0-0-0-0-0-0--0-0-0-0-0-0--0-0-0-0-0-0--2-2-2-2-2-2--
A--2-2-2-2-2-2--2-2-2-2-2-2----------------------------0-0-0-0-0-0--
E--3-3-3-3-3-3--3-3-3-3-3-3-----------------------------------------

   D  Dsus D    G  Gsus G    G  Gsus G 

E--2-2-3-3-2-2--3-3-3-3-3-3--3-3-3-3-3-3---|  Repeat these chords as 
B--3-3-3-3-3-3--0-0-1-1-0-0--0-0-1-1-0-0---|  necessary.
G--2-2-2-2-2-2--0-0-0-0-0-0--0-0-0-0-0-0---|
D--0-0-0-0-0-0--0-0-0-0-0-0--0-0-0-0-0-0---|
A---------------2-2-2-2-2-2--2-2-2-2-2-2---|
E---------------3-3-3-3-3-3--3-3-3-3-3-3---|



LEAD SOLO


   G                 D       Am  D             G
 
E--------------------------------------------------|
B--0---0-1-3-3h----0---------1---1-3-5-3h5p3-1-0---|
G--0---0-2-4-4h5p4-0-2-------2---2-4-5-4h5p4-2-0---|
D--------------------4--4-4------------------------|
A-----------------------5-5------------------------|
E--------------------------------------------------|



 Comments (click here to add a non-facebook comment)
Hi

I thing the first part solo is as follows...

E---------------------------
B--0---0--1--3--1h3p1-0-----
G--0---0--2--4--2-----0--2--
D------------------------4--
A---------------------------
E---------------------------

-SolakitareRemix | 10/27/2014
Home | FAQs | Privacy | Terms | Advertise | Contact
Top 100 Tab Sites