Give Kudos?
Are you sure you want to give kudos to axehappy?

Add To Songbook?
Are you sure you want to add this song to your songbook?


2,693 bands | 34,919 songs
Search: Register FREE! | Login
Browse Songs:
Browse Bands:
Tool Panel
Discuss This Song

1 2 3 4 5





Bering Strait - Bearing Straight (Intro)
Album: Bering Strait (2003)
Submitter: axehappy (60) on 3/27/03 1 comment
Month Views: 11 | Total Views: 2,739
Moderator: falgorn | Report This Song?
Song Tools

Comment

Songbook

Kudos

Show Chords

Print

Bering Strait  -  Bearing Straight  (intro)

By axehappy  -  axehappy at countrytabs.com


*****************************************************************************

h   =   hammer-on                           /   =   slide up

p   =   pulloff

*****************************************************************************


 strum

E--3---3--------------------------------------------------------
B--3----3---------1---------1---------1--------------------1----
G--0-----0---0---0-3/4-0---0-3/4-0---0-3/4-0----------0---0-3/4-
D--0------3---0h3-------0h3-------0h3-------3p0--------0h3------
A--2-------------------------------------------3-1h2------------
E--3------------------------------------------------3-----------


E------------3-------------------------------------------------
B-------1-1/3-6p3---------------------1---------1---------1----
G--0---0-3-------5-3-5-3/4-0---0-0---0-3/4-0---0-3/4-0---0-3/4-
D---0h3---------------------3p0---0h3-------0h3-------0h3------
A--------------------------------------------------------------
E--------------------------------------------------------------


E---------------------------------3-----------------------------
B------------------1---------1-1/3-6p3---------------------1----
G--0----------0---0-3/4-0---0-3-------5-3-5-3/4-0---0-0---0-3/4-
D---3p0--------0h3-------0h3---------------------3p0---0h3------
A------3-1h2----------------------------------------------------
E-----------3---------------------------------------------------


E-----------------------------------------------------3-------------------
B-------1---------1--------------------1---------1-1/3-6p3----------------
G--0---0-3/4-0---0-3/4-0----------0---0-3/4-0---0-3-------5-3-5-3/4-----0-
D---0h3-------0h3-------3p0--------0h3-------0h3---------------------3p0--
A--------------------------3-1h2------------------------------------------
E-------------------------------3-----------------------------------------


  strum							  strum
E------3----3--3-----------------------------------------------3--1--1--
B--1----1-----1-1------1---------1---------1---------------1----1-3--1--
G--0---------0----0---0-3/4-0---0-3/4-0---0-3/4-0----------0------3--2--
D--2------3--2-----0h3-------0h3-------0h3-------3p0-------2------3--3--
A--3------3--3--------------------------------------3-1h2--3------1--3--
E--------------------------------------------------------3-----------1--


E------------------------------------------------------------
B-------1---------1---------1--------------------1---------1-
G--0---0-3/4-0---0-3/4-0---0-3/4-0----------0---0-3/4-0---0--
D---0h3-------0h3-------0h3-------3p0--------0h3-------0h3---
A------------------------------------3-1h2-------------------
E-----------------------------------------3------------------

                            mandolin
E------3---------------------|
B---1/3-6p3------------------|
G--3-------5-3-5-3/4-0---0---|
D---------------------3p0----|
A----------------------------|
E----------------------------|

 Comments (click here to add a non-facebook comment)
this tab is great. but it doesnt have the end of the first part of
the song. other then that, its pretty good!!!

silasa6
-silasa123 | 4/1/2003
Home | FAQs | Privacy | Terms | Advertise | Contact
Top 100 Tab Sites