Give Kudos?
Are you sure you want to give kudos to dwm376s?

Add To Songbook?
Are you sure you want to add this song to your songbook?


2,728 bands | 35,168 songs
Search: Register FREE! | Login
Browse Songs:
Browse Bands:
Tool Panel
Discuss This Song

1 2 3 4 5



Blackhawk - Goodbye Says It All (Solo)
Album: BlackHawk (1993)
Submitter: dwm376s (2) on 5/5/04
Month Views: 25 | Total Views: 5,101
Sound Byte: Listen
Moderator: falgorn | Report This Song?
Song Tools

Comment

Songbook

Kudos

Show Chords

Print

BlackHawk -Goodbye Says it All - Solo


e ---------------------------------------------------------
b ------------------------------------9--------------------
g -------------------------8-6--8-8/10-10-8----------------
d ---8-88-8p6-5-6--8p6-8/10-----------------10-------------
a ---------------------------------------------------------
e ---------------------------------------------------------


e ---9-8---------11----------------------------------------
b -------11-9-11b--11-9-/9-99------------------------------
g ----------------------/8-88p6-------8--------------------
d ----------------------------8-6-/8--8-6------------------
a ---------------------------------------------------------
e ---------------------------------------------------------
 Comments (click here to add a non-facebook comment)
Home | FAQs | Privacy | Terms | Advertise | Contact
Top 100 Tab Sites