Give Kudos?
Are you sure you want to give kudos to WildCard76?

Add To Songbook?
Are you sure you want to add this song to your songbook?


2,632 bands | 34,459 songs
Search: Register FREE! | Login
Browse Songs:
Browse Bands:
Tool Panel
Discuss This Song

1 2 3 4 5





Blake Shelton - Every Time I Look At You (Intro)
Album: Blake Shelton (2001)
Submitter: WildCard76 (257) on 9/26/02 2 comments
Month Views: 32 | Total Views: 4,958
Moderator: jhempel24 | Report This Song?
Song Tools

Comment

Songbook

Kudos

Show Chords

Print

This intro is used throughout the song. It is also VERY similar to Toby Keith's "I Wanna Talk About Me". 
Pick this very quickly...it's EASY!!!

Christopher R.
Knoxville, TN




E----------------------------------------
B----------------------------------------
G----------------------------------------
D----------------3---5-5--3---------3----
A------------3-5-----3-3--1---1-3/5------
E----1--3/5------------------------------ 


E----------------------------------------
B----------------------------------------
G----------------------------------------
D----------------3---5-5--3---------3----
A------------3-5-----3-3--1---1-3/5------
E----1--3/5------------------------------ 
 Comments (click here to add a non-facebook comment)

-WildCard76 | 9/26/2002
-------------------------------
-------------------------------
-------------------------------
-------------------------------
-------------------------------
---------2--4--2--0/2-4--2-----
-----2-4----2------------------
-0/2----------------------------



-------------------------------
-------------------------------
-------------------------------
---------2-4-4-2--0/2-4--2-----
-----2-4---2-2-----------------
-0/2---------------------------
-nextcaglestar | 11/16/2004
Home | FAQs | Privacy | Terms | Advertise | Contact
Top 100 Tab Sites