Give Kudos?
Are you sure you want to give kudos to rvacher?

Add To Songbook?
Are you sure you want to add this song to your songbook?


2,726 bands | 35,161 songs
Search: Register FREE! | Login
Browse Songs:
Browse Bands:
Tool Panel
Discuss This Song

1 2 3 4 5



Blake Shelton - I'll Just Hold On W/intro And Tab (Chord)
Submitter: rvacher (1) on 10/24/09
Month Views: 9 | Total Views: 3,973
Moderator: jhempel24 | Report This Song?
Song Tools

Comment

Songbook

Kudos

Show Chords

Print

I see there are 2 tabs of this song already, 1 intro and 1 chord. 
This is the way my band plays it. The other guitar player has a
Variax with sitar. If you see anything wrong or need more info let 
me know. Oh yeah, rate this tab please.


(C) (Cmaj7) (Am) (Am/G)  (F) (Gadd5)

SITAR
e:--0-1--3--------------------------------------------------------------
b:----------3----1h3/5--------------------------------------------------
G:-----------------------4-5--------------pick each note before sliding-
D:----------------------------5/7---------------5/7/5/3/2p0--------------
A:---------------------------------------------------------------h3------
E:-----------------------------------------------------------------------

GUITAR 2   plays this between the sitar line played above
e:---------------------------------------------------------------------
b:---------------------------------------------------------------------
G:---------------------------------2p0--------------------------------
D:----------------------------------------3p2-------------------------
A:---------------------------------------------3-----------------------
E:---------------------------------------------------------------------


     C  Cmaj7 C7  Am Am/G Dsus2
e:-------------------------0------------------------------------------
b:--5---5----5----1---1----3------------------------------------------
G:--5---4----3----2---2----2------------------------------------------
D:--5---5----5----2---2----0------------------------------------------
A:--3---3----3----0---X-----------------------------------------------
E:--------------------3-----------------------------------------------
                       
(C) I can taste your kiss (Cmaj7) on my lips
(C7) And I'm wrapped around your finger tips 
(F) As I watch the moonlight dancing on your (Gadd5) skin
(C)Your green eyes (Cmaj7) and a sweet red wine
(C7) Go to my head girl every time
(F) And I get drunk on you
(Dsus2) I lose control and then
(Gadd5) And here I go again

Chorus
(C)I'm falling for you (Cmaj7) even though (Am) I know you're only (Am/G) playing with my (F) heart
(G) Tomorrow might be hell
(C) But a night or two of (Cmaj7) loving you is (Am) better than (Am/G) never at all (F)
(G) And I can't help myself
(F) So I'll just hold on (Gadd5)
(F) I'll just hold on (Gadd5)
(F) I'll just hold on (Gadd5)
Until your gone 

(C) (Cmaj7) (Am) (Am/G)  (F) (Gadd5)

Girl I know you're a gypsy soul
And I'm just a stop along your road
And you hang around long enough to blow my mind
If I had a star for every scar
You tattooed on my heart
I could fill up the Oklahoma sky
So girl I don't know why

Chorus

(F) I'll just hold on (Gadd5)
(F) I'll just hold on (Gadd5)
(F) I'll just hold on (Gadd5)
Till your gone

(Am) (Em)  (Am)  (Em)  (F)  (C)  (Gadd5) 

(F) I'll just hold on (Gadd5)
(F) I'll just hold on (Gadd5)
(F) I'll just hold on (Gadd5)
Till your gone

(C) I look down and my cell phone rings
And I (C7)see your name and I know what that means
But (F) I don't care, I'll (Fm) just hold on till you're gone

(C) Every time you leave I take it hard
(C7) Seein' you go just breaks my heart
(F)But I don't care, I'll (Fm) just hold on till you're gone

(C) Your green eyes and a sweet red wine
Go (C7) to my head girl every time
But (F) I don't care, I'll (Fm)just hold on till you're gone 
 Comments (click here to add a non-facebook comment)
Home | FAQs | Privacy | Terms | Advertise | Contact
Top 100 Tab Sites