Give Kudos?
Are you sure you want to give kudos to Koichi Kondo?

Add To Songbook?
Are you sure you want to add this song to your songbook?


2,668 bands | 34,782 songs
Search: Register FREE! | Login
Browse Songs:
Browse Bands:
Tool Panel
Discuss This Song

1 2 3 4 5





Blake Shelton - Neon Light (Chord)
Submitter: Koichi Kondo (686) on 10/3/14
Month Views: 27 | Total Views: 4,402
Moderator: jhempel24 | Report This Song?
Song Tools

Comment

Songbook

Kudos

Show Chords

Print

Neon Light (Intro.)
Written by Andrew Dorff, Mark Irwin & Josh Kear
Recorded by Blake Shelton
Album: Bringing Back The Sunshine (2014)

(No Capo)

Intro.:  (D) x 8 bars
(Banjo)
D:---|------------------|
B:---|3--0-----0--------|
G:-2/|------2-----------|
D:---|------------3-2-0-|
G:---|------------------| x 8bars

(Guitar)
E: ---|---||------|----6---------|-----------|----6---------|-----------||
B: ---|---||--0-3-|6b7---6b-6br--|3------0-3-|6b7---6b-6br--|3------0-3-||
G: ---|---||-2----|--------------|----2-2----|--------------|-----------||
D: ---|---||------|--------------|-----------|--------------|-----------||
A: ---|---||------|--------------|-----------|--------------|-----------||
E: ---|---||------|--------------|-----------|--------------|-----------||
 
 Comments (click here to add a non-facebook comment)
Home | FAQs | Privacy | Terms | Advertise | Contact
Top 100 Tab Sites