Give Kudos?
Are you sure you want to give kudos to lmofle?

Add To Songbook?
Are you sure you want to add this song to your songbook?


2,711 bands | 35,094 songs
Search: Register FREE! | Login
Browse Songs:
Browse Bands:
Tool Panel
Discuss This Song

1 2 3 4 5



Bleu Edmondson - $50 And A Flask Of Crown (different) (Intro)
Album: Southland (2001)
Submitter: lmofle (532) on 2/8/03 9 comments
Month Views: 17 | Total Views: 9,918
Sound Byte: Listen
Moderator: residentroadie | Report This Song?
Song Tools

Comment

Songbook

Kudos

Show Chords

Print

 
e------------------------0-0--|
b------------------------0-0--|
g-----------------------------|
d----------------------2------|
a-----------2-2-0-0h4--------|
e--0-2b-0-4------------------|

e---------------------------|
b---------------------------|
g---------------------------|
d---------------------------|
a-----------2-22222-0-------|
e--0-2b-0-4-----------2b-0--|
 
 Comments (click here to add a non-facebook comment)
hey are you going to get a sound byte up on this? j/w
-thewili | 4/19/2003
It's done...
-lmofle | 4/20/2003
alright thanks i appreciate it
-thewili | 4/20/2003
i think lmofle has it right
-Reckless Desi | 8/17/2004
I do alot of Bleu's stuff, this tabs is right...
-t_lyxx | 9/10/2004
It sounds right if you add a 4> in their
e---------------------------|
b---------------------------|
g---------------------------|
d---------------------------|
a-----------2----2222-0-----|
e--0-2b-0-4---4>-------2b0-|


-PatGreen2056 | 11/10/2004
i think the last bend is third fret not second, but other than that it's right
-rlcz71 | 3/9/2005
this is 100 percent right! when i learned how to play this song coby wier(ex lead guirtarist) showed me how to play it. dead on.

-mseale1 | 7/23/2005
great intro it sounds almost identical i think
-brian8 | 9/25/2005
Home | FAQs | Privacy | Terms | Advertise | Contact
Top 100 Tab Sites