Give Kudos?
Are you sure you want to give kudos to taylor7458?

Add To Songbook?
Are you sure you want to add this song to your songbook?


2,725 bands | 35,156 songs
Search: Register FREE! | Login
Browse Songs:
Browse Bands:
Tool Panel
Discuss This Song

1 2 3 4 5



Bleu Edmondson - Im Still Here Solo (Solo)
Album: The Future Ain't What It Used To Be (2010)
Submitter: taylor7458 (2) on 4/20/11
Month Views: 14 | Total Views: 2,262
Moderator: residentroadie | Report This Song?
Song Tools

Comment

Songbook

Kudos

Show Chords

Print

Bleu Edmondson
Im still here
Tabbed by Tooter Jackson of the Dry County Drifters
PLEASE LEAVE KUDOS!!! THANKS
Correct if needed
Solo
----12-12-12-12-12-12-12-12-12-12-12--12-1212\11---11\1010\9-9/10-10\9-9\77/9-9/10-----
------------------------------------------------------------------------------------------
------------------------------------------------------------------------------------------
------------------------------------------------------------------------------------------
------------------------------------------------------------------------------------------
------------------------------------------------------------------------------------------

-10-10-10-10-10-10-10\9--9-9-9-9-9\7--7-7-7-77\5--5-5-5-5-5------------------------------
---------------------------------------------------------------12b(14)r12  ---------------
------------------------------------------------------------------------------------------
------------------------------------------------------------------------------------------
------------------------------------------------------------------------------------------
------------------------------------------------------------------------------------------

-----------------------------------------------0----0-----0----0----0----12---------------
--12b(14)r12----12b(14)r12----12b(14)r12----12---12----10---10---10---12------------------
------------------------------------------------------------------------------------------
------------------------------------------------------------------------------------------
------------------------------------------------------------------------------------------
-------------------------------------------------------------------------------------------

End Solo
----12-12-12-12-12-12-12-12-12-12-12--12-1212\11---11\1010\9-9/10-10\9-9\77/9-9/10-----
------------------------------------------------------------------------------------------
------------------------------------------------------------------------------------------
------------------------------------------------------------------------------------------
------------------------------------------------------------------------------------------
------------------------------------------------------------------------------------------


-10-10-10-10-10-10-10\9--9-9-9-9-9\7--7-7-7-77\5--5-5-5-5-5---10-10-10-10-10-10-10\9-9---
------------------------------------------------------------------------------------------
------------------------------------------------------------------------------------------
------------------------------------------------------------------------------------------
------------------------------------------------------------------------------------------
------------------------------------------------------------------------------------------
                                       Piano Riff
---9-9-9-9-9\7--7-7-7-7-7\5-5-5-5-5-5--|--------------------------------------------------
---------------------------------------|--7-7-7-7-7--5-3-------------7-7-7-5--------------
---------------------------------------|------------------4--2x3------------4------------
---------------------------------------|--------------------------------------------------
---------------------------------------|--------------------------------------------------
---------------------------------------|--------------------------------------------------
 Comments (click here to add a non-facebook comment)
Home | FAQs | Privacy | Terms | Advertise | Contact
Top 100 Tab Sites