Give Kudos?
Are you sure you want to give kudos to musicmixstudio?

Add To Songbook?
Are you sure you want to add this song to your songbook?


2,751 bands | 35,342 songs
Search: Register FREE! | Login
Browse Songs:
Browse Bands:
Tool Panel
Discuss This Song

1 2 3 4 5



Blue Rodeo - Lost Together (bass) (Bass)
Submitter: musicmixstudio (4) on 9/26/08
Month Views: 12 | Total Views: 2,744
Moderator: sully474 | Report This Song?
Song Tools

Comment

Songbook

Kudos

Show Chords

Print

 

Verse (X3)

|---------------------|---------------------|
|-5555-4444-2222------|---------------------|
|----------------5555-|---------------------|
|---------------------|-3333-2222-00000000--|

Pre-Chorus

|---------------------|--------------------|--------------------|
|----------------5555-|--------------------|--------------------|
|-33333333-55555------|3333-5555-7777------|5555-3333-2222-0000-|
|---------------------|---------------0000-|--------------------|

Chorus (X2)

|----------------------------------------7-7-|
|-----5---4-42-2--------------4-7-4-4---7-7--|
|-------5--5-----023-3-3/55-5------5--5------|
|-3-3----------------------------------------|


Verse (X2)
Pre-Chorus
Chorus (X2)
Pre-Chorus
*stop for the third verse*
Pre-Chorus
Chorus till end
 Comments (click here to add a non-facebook comment)
Home | FAQs | Privacy | Terms | Advertise | Contact
Top 100 Tab Sites