Give Kudos?
Are you sure you want to give kudos to texasisalive?

Add To Songbook?
Are you sure you want to add this song to your songbook?


2,719 bands | 35,141 songs
Search: Register FREE! | Login
Browse Songs:
Browse Bands:
Tool Panel
Discuss This Song

1 2 3 4 5



Blue Rodeo - Trust Yourself (Bass)
Submitter: texasisalive (6) on 8/11/03
Month Views: 5 | Total Views: 3,360
Moderator: sully474 | Report This Song?
Song Tools

Comment

Songbook

Kudos

Show Chords

Print

Trust Yourself
Blue Rodeo




The bass comes in on the fifth bar, with the vocals.

Intro:

   1 + 2 + 3 + 4 +   1 + 2 + 3 + 4 +   1 + 2 + 3 + 4 +   1 + 2 + 3 + 4 +
G|-----------------|-----------------|-----------------|-----------------|
D|-4---------------|-R-------2---2-3-|-4---------------|---------4-2-----|
A|-----------------|-------4---4-----|-----------------|-------------4---|
E|-----------------|-----------------|-----------------|-----------------|

   1 + 2 + 3 + 4 +   1 + 2 + 3 + 4 +   1 + 2 + 3 + 4 +   1 + 2 + 3 + 4 +
G|-----------------|-----------------|-----------------|-----------------|
D|-----------------|---------------2-|-4---------------|---------4-------|
A|-----------------|-----------0-2---|-----------------|-----------0-2-3-|
E|-2---------------|---------2-------|-----------------|-----------------|

   1 + 2 + 3 + 4 +   1 + 2 + 3 + 4 +   1 + 2 + 3 + 4 +   1 + 2 + 3 + 4 +
G|-----------------|-----------------|-----------------|-----------------|
D|-----------------|-----------------|-----------------|-----------------|
A|-4---------------|-----------------|-----------------|-----------0-2-3-|
E|-----------------|-----------------|-2---------------|---------2-------|

   1 + 2 + 3 + 4 +   1 + 2 + 3 + 4 +   1 + 2 + 3 + 4 +   1 + 2 + 3 + 4 +
G|-----------------|-----------------|-----------------|-----------------|
D|-----------------|-----------------|-----------------|-----------------|
A|-4---------------|-----------------|-2---------------|-----------------|
E|-----------------|-----------------|-----------------|-----------------|

   1 + 2 + 3 + 4 +   1 + 2 + 3 + 4 +   1 + 2 + 3 + 4 +   1 + 2 + 3 + 4 +
G|-----------------|-----------------|-----------------|-----------------|
D|-----------------|-----------------|-----------------|-----------------|
A|-5---------------|-----------------|-5---------------|-----------------|
E|-----------------|-5---------------|-----------------|-5---------------|

   1 + 2 + 3 + 4 +   1 + 2 + 3 + 4 +   1 + 2 + 3 + 4 +   1 + 2 + 3 + 4 +
G|-----------------|-----------------|-----------------|-----------------|
D|-----------------|-----------------|-----------------|-----------------|
A|-5-----5---------|---------5-------|-----------------|-----------------|
E|---------5-------|-7---------------|-2---------------|-R---------------|

   1 + 2 + 3 + 4 +   1 + 2 + 3 + 4 +  
G|-----------------|-----------------|
D|-----------------|-4-2-------------|	End of intro.
A|-----------------|-----4-3-2p0-----|	Thre rest of the band comes in.
E|-----------------|-------------0---|

Verse 1:

   1 + 2 + 3 + 4 +          1 + 2 + 3 + 4 +  
G|-----------------|      |-----------------|
D|-----------------| x7	  |-----------------|
A|---------4-----4-|	  |-----------0-2-3-|	
E|-2-----2---------|	  |-2-------2-------|

   1 + 2 + 3 + 4 +   1 + 2 + 3 + 4 +   1 + 2 + 3 + 4 +   1 + 2 + 3 + 4 +
G|-----------------|-----------------|-----------------|-----------------|
D|-----------------|-----------------|-----------------|---------4-2-----|
A|-4-----4---------|-4-----4---------|---------4-----4-|-------------2-3-|
E|---------4-----4-|---------4-----4-|-2-----2---------|-2-----2---------|

   1 + 2 + 3 + 4 +   1 + 2 + 3 + 4 +   1 + 2 + 3 + 4 +   1 + 2 + 3 + 4 +
G|-----------------|-----------------|-----------------|-----------------|
D|-----------------|-----------------|-----------------|-----------------|
A|-4-----4---------|-4-----4---------|-2-----2-2-------|-2-----2-2---2---|
E|---------4-----4-|---------4-----4-|-----------------|-----------------|

   1 + 2 + 3 + 4 +   1 + 2 + 3 + 4 +   1 + 2 + 3 + 4 +   1 + 2 + 3 + 4 +
G|-----------------|-----------------|-----------------|-----------------|
D|-----------------|-----------------|-----------------|-----------------|
A|-5-----5-5-------|-----------------|-5-----5-5-------|-----------------|
E|-----------------|-5-----5-5-------|-----------------|-5-----5-5-------|

                                      Guitar solo:  
   1 + 2 + 3 + 4 +   1 + 2 + 3 + 4 +    1 + 2 + 3 + 4 +   1 + 2 + 3 + 4 +
G|-----------------|-----------------||-----------------|-----------------|
D|-----------------|-----------------||-----------------|-----------------|
A|-5---------------|---------5-------||---------4-4---4-|---------4-4---4-|
E|---------5-------|-7---------------||-2-----2---------|-2-----2---------|

   1 + 2 + 3 + 4 +   1 + 2 + 3 + 4 +   1 + 2 + 3 + 4 +   1 + 2 + 3 + 4 +
G|-----------------|-----------------|-----------------|-----------------|
D|-----------------|-----------------|-----------------|-----------------|
A|---------4-4---4-|---------4-0-2-3-|-4-----4---------|-4-----4-----2---|
E|-2-----2---------|-2-----2---------|---------4-----4-|---------4-------|

   1 + 2 + 3 + 4 +   1 + 2 + 3 + 4 +   1 + 2 + 3 + 4 +   1 + 2 + 3 + 4 +
G|-----------------|-----------------|-----------------|-----------------|
D|-----------------|-----------------|-----------------|-----------------|
A|-2-----2---------|-2-----2-----2---|-5-5-5-5-5-5-5-5-|-5-5-5-5-5-5-5-5-|
E|---------2-----2-|---------2-------|-----------------|-----------------|

   1 + 2 + 3 + 4 +   1 + 2 + 3 + 4 +   1 + 2 + 3 + 4 +   1 + 2 +  3 + 4 +
G|-----------------|-----------------|-----------------|------------------|
D|-----------------|-----------------|-----------------|----/11-9-11------|
A|-5-5-5-5-5-5-5-5-|-5-5-5-5-5-5-5-5-|-4-4-4-4-4-4-4-4-|-4-4----------11--|
E|-----------------|-----------------|-----------------|------------------|

Verse 2:

   1 + 2 + 3 + 4 +          1 + 2 + 3 + 4 +  
G|-----------------|      |-----------------|
D|-----------------| x9	  |-----------------|
A|---------4-----4-|	  |---------4---0-2-|	
E|-2-----2---------|	  |-2-----2---------|

   1 + 2 + 3 + 4 +   1 + 2 + 3 + 4 +   1 + 2 + 3 + 4 +   1 + 2 + 3 + 4 +
G|-----------------|-----------------|-----------------|-----------------|
D|-----------------|-----------------|-----------------|---------4-------|
A|-4-----4---------|-4-----4-----4---|---------4-----4-|-----------0-2-3-|
E|---------4-----4-|---------4-------|-2-----2---------|-2-----2---------|

   1 + 2 + 3 + 4 +   1 + 2 + 3 + 4 +   1 + 2 + 3 + 4 +   1 + 2 + 3 + 4 +
G|-----------------|-----------------|-----------------|-----------------|
D|-----------------|-----------------|---------4-----4-|-----------------|
A|-4-----4---------|-4-----4-----4---|-2-----2---------|-2-----2-2---2---|
E|---------4-----4-|---------4-------|-----------------|-----------------|

   1 + 2 + 3 + 4 +   1 + 2 + 3 + 4 +   1 + 2 + 3 + 4 +   1 + 2 + 3 + 4 +
G|-----------------|-----------------|-----------------|-----------------|
D|-----------------|-----------------|-----------------|-----------------|
A|-5-----5-5-------|-----------------|-5-----5-5-------|-----------------|
E|-----------------|-5-----5-5-------|-----------------|-5-----5-5-------|

   1 + 2 + 3 + 4 +   1 + 2 + 3 + 4 +   1 + 2 + 3 + 4 +   1 + 2 + 3 + 4 +
G|-----------------|-----------------|-----------------|-----------------|
D|-----------------|-----------------|-12\-----7-------|-9---------------|
A|-----------------|-------4-5-------|-----------------|---------5-------|
E|-10\-----5-------|-7---------------|-----------------|-----------------|

    1 + 2 + 3 + 4 +   1 + 2 + 3 + 4 + 
G|------------------|-----------------|
D|-/12\-----7-------|-9---------------|
A|------------------|---------5-------|
E|------------------|-----------------|

Outro (guitar solo):

   1 + 2 + 3 + 4 +          1 + 2 + 3 + 4 +  
G|-----------------|      |-----------------|
D|-----------------| x7	  |-----------2-----|
A|---------4-----4-|	  |---------4---4-2-|	
E|-2-----2---------|	  |-2-----2---------|

   1 + 2 + 3 + 4 +   1 + 2 + 3 + 4 +   1 + 2 + 3 + 4 +   1 + 2 + 3 + 4 +
G|-----------------|-----------------|-----------------|-----------------|
D|-----------------|------
 Comments (click here to add a non-facebook comment)
Home | FAQs | Privacy | Terms | Advertise | Contact
Top 100 Tab Sites