Give Kudos?
Are you sure you want to give kudos to jpatt57?

Add To Songbook?
Are you sure you want to add this song to your songbook?


2,693 bands | 34,920 songs
Search: Register FREE! | Login
Browse Songs:
Browse Bands:
Tool Panel
Discuss This Song

1 2 3 4 5





Brad Paisley - Crushin' It (Solo)
Album: Moonshine In The Trunck (2014)
Submitter: jpatt57 (0) on 4/21/15
Month Views: 15 | Total Views: 5,622
Moderator: Ray Terry | Report This Song?
Song Tools

Comment

Songbook

Kudos

Show Chords

Print

Brad Paisley

Crushin' It


	**********   Drop tune to D!!!  **************




E---------------------------------------------------------------------------------------------------------------------------------------------------------
B---------------------------------------------------------------------------------------------------------------------------------------------------------
G---12b14-12p10-12-10b11--------------10-----9-7--------5p0-----------------------------------------------------------------------------------------------
D------------------------12-10--------------------------------6-5-3----3-5-3b4----------------------------------------------------------------------------
A------------------------------11h12-----12-------10-8----------------------------------------------------------------------------------------------------
E--------------------------------------------------------------------5------------------------------------------------------------------------------------

E------------------------------------------------------------------------------------------------------------------8----------8---------8-----------------
B---------------------------------------------------------------------------------------------------------------10---10p8--10---10-9h10---10-9h10---------
G------------------------------------------------------7----------------------------------------------10p7h10p7-------------------------------------------
D------------0----------------2p0---3p0-------10p7--------10--7-10p7----7-10p7-----7-10p7-----7-10p7------------------------------------------------------
A--5-3p0-3b4-------------5-0------5-----5----------10----------------10-----------------------------------------------------------------------------------
E-----------------10\-3---------------------------------------------------------10--------10--------------------------------------------------------------

E---------------------------------------------------------------------------------------------------------------------------------------------------------
B---13b15r-13b15-13-10----10------------------------------------------------------------------------------------------------------------------------------
G----------------------13----13-12-10\7---5--------------5-2-1-0------------------------------------------------------------------------------------------
D---------------------------------------7----7-6-5-4-3-5---------3-5bp0-----------------------------------------------------------------------------------
A---------------------------------------------------------------------------------------------------------------------------------------------------------
E---------------------------------------------------------------------------------------------------------------------------------------------------------
 Comments (click here to add a non-facebook comment)
Home | FAQs | Privacy | Terms | Advertise | Contact
Top 100 Tab Sites