Give Kudos?
Are you sure you want to give kudos to mooman2679?

Add To Songbook?
Are you sure you want to add this song to your songbook?


2,862 bands | 36,210 songs
Search: Register FREE! | Login
Browse Songs:
Browse Bands:
Tool Panel
Discuss This Song

1 2 3 4 5



Brad Paisley - Departure (1st Solo) (Solo)
Album: Play (2008)
Submitter: mooman2679 (2) on 8/28/13
Month Views: 22 | Total Views: 3,599
Sound Byte: Listen
Moderator: Ray Terry | Report This Song?
Song Tools

Comment

Songbook

Kudos

Show Chords

Print

Pretty fun solo.  The * identifies where the neck should be bent.
It doesn't have to be extreme, but you can hear it

pbr = Pre-bend release

Soundbyte added.  I messed up the ending a tiny bit, should still be
useful

mooman2679 at gmail.com


e------------------------------------------9-------
B-----------------------0----------------9---------
G---------------------2---2--1/9-9---11bh----------
D--------------------2-------2/----9---------------
A--2-2-2-2---2b---0-2-x----------------------------
E---------2-----0----------------------------------

e-------9-------9-12p9---------------------------------------
B----12b-------9-------12-9p0-----9p0------------------------
G--9---------9------------------9----9p0--9p0----------------
D----------11-----------------11--------11---11p0------------
A------------------------------------------------11p9\7\-----
E--------------------------------------------------------0---

e----------------------------12---14-----16--16-------------
B-----------0-----4-4/9-12-----10-12-----17--17-------------
G-----9-----1-----4-4/9-9--9--------13/16--16---------------
D-----9-----2-----------------------------------------------
A--/7---7\2---2/6-------------------------------------------
E-----------------------------------------------------------
             
              *
e----------------------------------------0-------------------
B------4----------------------------------2----9---9---------
G------4--4---4------------------2--2-4bh--4r--9b--9---------
D---------4---4---2--------------2-------------------9-------
A--2/6------2-------4-2-2br-0--------------------------------
E---------------0-------------4b-----------------------------

e----------------------------------------------------------------
B--12--12-----17--17------16---17---19--19bh---19-19-19b-19br-17-
G--11b-11-----16b-16-16-----16---16---16-----x-------------------
D---------9/14-------14-14---------------------------------------
A----------------------------------------------------------------
E----------------------------------------------------------------

                              *       *
e-------0-------------------0---------0-------------------------
B------4-4----------------0-0-0-----0-0-------------------------
G-----6---6--------------2--2-1-----2-2-------------------------
D--2/6-----6-----6------2-----2-----2-2-------------------------
A-------------6h7--0------------0-2-----------------------------
E---------------------------------------------------------------

e-------0-------------------------------------------------------
B------4-4---------------------0--------------------------------
G--2/-6---6------------2pbr-1--1--------------------------------
D--2/6-----6-----6---2-2-----2-2--2-----------------------------
A-------------6h7--0---------------4-2br-0----------------------
E------------------------------------------2br-0----------------
 Comments (click here to add a non-facebook comment)
Home | FAQs | Privacy | Terms | Advertise | Contact
Top 100 Tab Sites