Give Kudos?
Are you sure you want to give kudos to axehappy?

Add To Songbook?
Are you sure you want to add this song to your songbook?


2,682 bands | 34,891 songs
Search: Register FREE! | Login
Browse Songs:
Browse Bands:
Tool Panel
Discuss This Song

1 2 3 4 5





Brad Paisley - Famous People (Intro)
Album: Mud on the Tires (2003)
Submitter: axehappy (82) on 9/25/04 4 comments
Month Views: 17 | Total Views: 7,456
Sound Byte: Listen
Moderator: Ray Terry | Report This Song?
Song Tools

Comment

Songbook

Kudos

Show Chords

Print

Brad Paisley  -  Famous People  (intro)

By axehappy  -  axehappy at countrytabs.com



For anyone who doesn't know the technique, 'chicken pick' is to
pick a note using alternate pick and middle finger, to get a kind
of staccato sound.


**************************************************************************

/   =   slide up                            x   =   dead note 

h   =   hammer-on                           bh  =   bend and hold

r   =   release bent note                   p   =   pulloff


**************************************************************************


E----------------------------------------------------------------------
B-----------------------------0------3------------3---3-3-3-3-3-3------
G--1/2-0-1-0------------------0------2---0--0-2p0-2bh-2-2-2-2-2-2r-p0--
D--2/3-0-2-0-0-2-0-0----------0---0-0-0--0h2---------------------------
A------------0-3-2-0-----------2h3------3------------------------------
E-------------------x-x-x-2-3~-----------------------------------------



                             chicken pick
E-------------------------------------------------|
B-----0------3---------------------------0--------|
G-----0------2---0--0-2p0-2bh-2-2-2-2-2-2-2r-p0---|
D-----0---0-0-0--0h2------------------------------|
A------2h3------3---------------------------------|
E--3-3--------------------------------------------|

 Comments (click here to add a non-facebook comment)
try to figure out the guitar solo on it, also solo on cigar song. thanks

-silasathuong | 9/26/2004
lol chicken pickin lol...tremelo pickin as well
-chad_jarnigan | 11/27/2004
Tremelo picking is different though.
You can do that with just your pick..
Chicken Picking uses a specific technique to
get a specific sound, rather than just
picking the note fast.
-axehappy | 11/28/2004
Idk how you do it man but everything you tab is 99% scratch that 100% dude your frankly amazing keep tabing. By the way could you tab out Amarillo Sky by Jason Aldean for me?
-aleced6 | 11/9/2009
Home | FAQs | Privacy | Terms | Advertise | Contact
Top 100 Tab Sites