Give Kudos?
Are you sure you want to give kudos to jpatt57?

Add To Songbook?
Are you sure you want to add this song to your songbook?


2,675 bands | 34,826 songs
Search: Register FREE! | Login
Browse Songs:
Browse Bands:
Tool Panel
Discuss This Song

1 2 3 4 5





Brad Paisley - High Life (Solo)
Album: Moonshine In The Trunck (2014)
Submitter: jpatt57 (0) on 11/8/14
Month Views: 8 | Total Views: 3,758
Moderator: Ray Terry | Report This Song?
Song Tools

Comment

Songbook

Kudos

Show Chords

Print

High Life
By: Brad Paisley

Tabbed by Jpatt57



Kinda cool solos.  Lots of odd notes.  I don't know the technical term for a nut bend in a tab but mine are indicated by a "nb".
And "pb"= pre-bend
    "r" = release the bend



E------------------------------------------------------------------------------------------------------------8------
B----------------------------------------------------------------------------------8---------8----------------------
G--------------------------------------------------3p0-5-6----7----8-9-10-11-11bh12---11bh12----12r11-10------------
D----------------------------------3-----3---4--5-----------9---10---------------------------------------7/9--------
A----3---------3-6-3-6--3----3--6----3/5---6------------------------------------------------------------------------
E-------3-6b8--------------6----------------------------------------------------------------------------------------

E----------------------------------------------------------------------10-----10--------------12-13-15---13p12----------------------------------
B------------1---------------------6------------6-------8-----10bh12-------12----12r10--10/15------------------13-------------------------------
G--------------pnb2r0---------3/5----pb7r5---------7bh9---9--------------------------------------------------------12\10-9-10-9/5---------------
D-------1-3------------0nb2----------------5/7--------------------------------------------------------------------------------------------------
A---1/3-----------------------------------------------------------------------------------------------------------------------------------------
E-----------------------------------------------------------------------------------------------------------------------------------------------
 Comments (click here to add a non-facebook comment)
Home | FAQs | Privacy | Terms | Advertise | Contact
Top 100 Tab Sites