Give Kudos?
Are you sure you want to give kudos to eric wilson?

Add To Songbook?
Are you sure you want to add this song to your songbook?


2,831 bands | 36,023 songs
Search: Register FREE! | Login
Browse Songs:
Browse Bands:
Tool Panel
Discuss This Song

1 2 3 4 5



Brad Paisley - I Wish You'd Stay (Solo)
Album: Part II (2001)
Submitter: eric wilson (1) on 3/30/05 2 comments
Month Views: 12 | Total Views: 4,648
Sound Byte: Listen
Moderator: Ray Terry | Report This Song?
Song Tools

Comment

Songbook

Kudos

Show Chords

Print

Brad Paisley - I Wish You'd Stay (Solo)

tabbed by: eric wilson


This goes up to the piano outro. Try and have soundbyte up soon. Rock On!
----------------------------------------------------------------------------
h= hammer on              p= pull off
~=let ring                /= slide up
\= slide down             b= bend
bh= bend and hold         r= release bend


* Paisley is using a G-bender for that so this is the way I play it without one. 
Also use kind of a rake technique to get the right sound.
-----------------------------------------------------------------------------




                                                                 rake
E----------------------------------------------------------------8-------------------
B----------3-1/3~----------------------------------------8--10bh--10r--8h10-10/12----
G---------0-------4-2/4--4\2-0-0h2-2br-0--------7-9-7-7h9----------------------------
D----0-0h2-------------------------------4-5-7\9-----9-------------------------------
A-2h3--------------------------------------------------------------------------------
E------------------------------------------------------------------------------------

                                                *
E-------------------------------------------------------------------------------------------
B-8---8------7-7---7--------------------------------8--------------------------------8/10~\-
G-7h9-7---9b-7-7h9-7---------7---------7--9h11--11b-7-4-2h4p2--0h2br-p0----------7h9--------
D-------9------------9-7h9-10--7-5-7/9----10---10---9-----------------------5h7/9-----------
A-----------------------------------------------------------------------5h7-----------------
E-------------------------------------------------------------------------------------------

E-----------------------
B-----------------------
G-------7----7-9-7/9-\7-
D-7h9-10---10-----------
A-----------------------
E-----------------------
 Comments (click here to add a non-facebook comment)
Listen to the soundbyte on mine I posted the other day. I'll try yours when i get home
-mooman2679 | 3/31/2005
Finally got around to adding a soundbyte. Hope it helps.

I forgot to mention this but the first 2 hammer-ons are actually
bends. The second one is a behind the nut bend which can't be done on my guitar so I just tabbed it with hammer-ons because that's how I played it in the byte.
-eric wilson | 5/1/2005
Home | FAQs | Privacy | Terms | Advertise | Contact
Top 100 Tab Sites