Give Kudos?
Are you sure you want to give kudos to livewire8?

Add To Songbook?
Are you sure you want to add this song to your songbook?


2,728 bands | 35,169 songs
Search: Register FREE! | Login
Browse Songs:
Browse Bands:
Tool Panel
Discuss This Song

1 2 3 4 5



Brad Paisley - I'm Gonna Miss Her (the Fishin' Song) (Intro)
Album: Part II (2001)
Submitter: livewire8 (1) on 7/5/11
Month Views: 15 | Total Views: 4,319
Moderator: Ray Terry | Report This Song?
Song Tools

Comment

Songbook

Kudos

Show Chords

Print

Brad Paisley- I'm Gonna Miss Her (The Fishin' Song)

Tune Down 1/2 Step

INTRO:
e-------3---------3-----------3---------------3---
B-----------------3-------3h5---------3-------3---
G-3h4-----------0-------------------5---3h4-------
D-----5-----------------5---------4---------5-----
A---------0h1-2-----2-3---------5-----------------
E-3-------------------------------------3---------

e---------3---------------------------------------
B---------3---------3-----------------------------
G-------0---------5-------------------------------
D---------------5-----4---------------------------
A-0-1-2-----2-3-----------------------------------
E-------------------------------------------------
 Comments (click here to add a non-facebook comment)
Home | FAQs | Privacy | Terms | Advertise | Contact
Top 100 Tab Sites