Give Kudos?
Are you sure you want to give kudos to livewire8?

Add To Songbook?
Are you sure you want to add this song to your songbook?


2,732 bands | 35,202 songs
Search: Register FREE! | Login
Browse Songs:
Browse Bands:
Tool Panel
Discuss This Song

1 2 3 4 5



Brad Paisley - I'm Gonna Miss Her (the Fishin' Song) (Solo)
Album: Part II (2001)
Submitter: livewire8 (0) on 7/5/11
Month Views: 1 | Total Views: 4,722
Moderator: Ray Terry | Report This Song?
Song Tools

Comment

Songbook

Kudos

Show Chords

Print

Brad Paisley- I'm Gonna Miss Her (The Fishin' Song)

Tune Down 1/2 Step

b=bend
r=release
h=hammer on
p=pull off
v=vibrato
s=slide
/=slide up
\=slide down


SOLO:
e-------------------------------------------------
B------------------------------4-----7-9br-7----2-
G-4h6-4------------------------4-------------1b---
D-4h6-4------------------------4-6s8--------------
A-------------1-2-3-4v-4p2-4s6--------------------
E-------1-2-4-------------------------------------

e-------------------------------------------------
B-0-1p0-------------------------------------------
G-------2brp1-------------------------------------
D-------------2-4---2-----------------------------
A-----------------4---4-3-2-------4---6p4h6p4-----
E---------------------------5p4s6---5---------2---

e-------------------------------------------------
B---------------6-----5s3-----------------5--5--5-
G-------------------------5---------------4b-4b-4b
D-----------------6s4-------4p0---------6---------
A---------4v-4\-----------------4\-7\-------------
E-4s6-4-2-----------------------------2-----------

e-------------------------------------------------
B-------------------------------------------------
G-1br----1---2-3----------------------------------
D-----4v------------------------------------------
A----------4--------------------------------------
E-------------------------------------------------
 Comments (click here to add a non-facebook comment)
Home | FAQs | Privacy | Terms | Advertise | Contact
Top 100 Tab Sites