Give Kudos?
Are you sure you want to give kudos to axehappy?

Add To Songbook?
Are you sure you want to add this song to your songbook?


2,668 bands | 34,775 songs
Search: Register FREE! | Login
Browse Songs:
Browse Bands:
Tool Panel
Discuss This Song

1 2 3 4 5





Brad Paisley - I'm Gonna Miss Her (Solo)
Album: Part II (2001)
Submitter: axehappy (82) on 3/25/02 5 comments
Month Views: 32 | Total Views: 17,366
Moderator: Ray Terry | Report This Song?
Song Tools

Comment

Songbook

Kudos

Show Chords

Print

Brad Paisley - I'm Gonna Miss Her (solo)

By axehappy - axehappy at countrytabs.com

***********************************************************************

h   =   hammer-on                              /   =   slide up

\   =   slide down                             p   =   pulloff

b   =   bend                                   ~   =   heavy vibrato

br  =   bend & release                         bh  =   bend & hold

r   =   release bend                           

***********************************************************************


LEAD SOLO


E--------------------------------------------------------------
B------------------------------------------------4----7-9br-7--
G---------------------4---4----------------------4-6/8---------
D-------4-6b-6/7\6p4--4h6-4------------------------------------
A----4h6------------6------------2-3-4-4b~~p2-4/6--------------
E--2------------------------2-3-4------------------------------


E--------------------------------------------------|
B--------------------------------------------------|
G------6-4-----------------------------------------|
D--6bh--6-6r\4-4-2---------------------------------|
A---------------4-4-3-2-0-----4-6p4h6p4--------4---|
E------------------------2-4/6-6-------2-4b-4-2----|

 Comments (click here to add a non-facebook comment)
Not bad, but I don't think the middle part sounds right.
The part were he starts to speed up sounds like it
might be at a different voicing
It won't let me rate this up top. But I would give this
about a 7.5. It's pretty good. The beginning and the ending
are right.
-the legend | 10/3/2002
personally, I think it's darn near perfect! I'll give it a 9.
-eric wilson | 3/31/2003
Try this one for the g bender lick.

E--------------------------------------
B-------2-1-0--------------------------
G----2b3 \ -----3b\2p1-----------------
D----------------------2-4-------------
A--------------------------------------
E--------------------------------------
-patrickp01 | 8/6/2003
Could u look at my version of this end of the solo and tell me what u think?
-stevie_ray | 3/31/2004
man guy, there isn't really anything wrong with this tab at all. Some might be in a different position but its all pretty much right.

good job axe
-mooman2679 | 2/8/2005
Home | FAQs | Privacy | Terms | Advertise | Contact
Top 100 Tab Sites