Give Kudos?
Are you sure you want to give kudos to jpatt57?

Add To Songbook?
Are you sure you want to add this song to your songbook?


2,660 bands | 34,722 songs
Search: Register FREE! | Login
Browse Songs:
Browse Bands:
Tool Panel
Discuss This Song

1 2 3 4 5





Brad Paisley - Les Is More (Tab)
Album: Play (2008)
Submitter: jpatt57 (0) on 9/1/14
Month Views: 194 | Total Views: 7,502
Moderator: Ray Terry | Report This Song?
Song Tools

Comment

Songbook

Kudos

Show Chords

Print

Les Is More
Brad Paisley

This is a fun one.  Should be almost perfect.  Enjoy!!!!!!!!




E------------------------------------------------------------------------------------------------------------------------------
B-------12-13---10-------6-8---5--------4-6p4--3\------------------------------------------------------------------------------
G---------------8--------------6-----------------------------------------------------------------------------------------------
D---10----------9------8-------7-----6---------5\------------------------------------------------------------------------------
A------------------------------------------------------------------------------------------------------------------------------
E------------------------------------------------------------------------------------------------------------------------------


E------------------------------------------------------------------------------------------------------------------------------
B------0-1-3---3-1-3p1--------------------8------------------7-8------9/10----10-8--6/7---5-8-7-5------------------------------
G----0---------2---------4-0------------7---7------8/9--------------------------------------------7-4------------4\------------
D------------------------2-2----------9------------9/10---10----------6/7---7-------6/7---------------7-4--------5\------------
A--------------2-----------------9/10------------------------------------------------------------------------------------------
E------------------------------------------------------------------------------------------------------------------------------

E--------------------------------------7-----------9---------------------------------------------------------------------------
B-----0-1-3---3-1-3p1-------------3--4-----8--8-10---8---8--7--8--8------------------------------------------------------------
G---0---------2---------4-0---3/4----4-----7-------------------7----7\5-7----------------4\------------------------------------
D-----------------------2-2---4/5--------------------8---7--7-------------7b9r-5----3----5\------------------------------------
A-------------2----------------------------7-------------5--5---------------------5---5----------------------------------------
E------------------------------------------------------------------------------------------------------------------------------

E-----------------------------------------------------3-2h3p2-------5----------------------------------------------------------
B-----0-1-3---3----1-3p1--0---------------------2h4h5---------5-3-------8-5-6/7------------------------------------------------
G---0---------2----2-2------0--------------2h4h5--------------------------------7-6-5----------0-------------4\----------------
D---------------------------2---------2h4h5---------------------------7---------------7-6-5--3---2-1-0-------3\----------------
A-----------2----2-----------------2h5-----------------------------------------------------------------3-2-1-------------------
E-------------------------0-----2/3--------------------------------------------------------------------------------------------

E-----------------5-6/7------------------7-10-8-7--------7---------------------------------------------------------------------
B-------------7-8---7/8-8--------------8----------8-8-10----8--6-9-8-7-5-------------------------------------------------------
G------4-5-7--5---------7--------7-8-9-----------------------------------7-6-5---3h4-------------------------------------------
D----5---------------------7-8-9----------------------------8------------------7-----5-----------------------------------------
A----------------------------------------------------------------------------------------3-5-----------------------------------
E--------------------------------------------------------------------------------------------5b7-3-----------------------------

E--------------------------------------------------------------8-8---------8---------------------------------------------------
B-------------3---------6-7/8--8-10----10--11--10-11----------8----11-10-----11-10-8-------------------------------------------
G----2/3---3h5----6/7-8--------8-10-10-----------------------9-----------------------10-8-7------------------------------------
D----4/5-------------------------------------12----------5/10---------10--------------------10-9-8--3/5------------------------
A------------------------------------------------------------------------------------------------------------------------------
E------------------------------------------------------------------------------------------------------------------------------

E--------------------------------------------------------8-10p8----------------10-12/14--14/15\--------------------------------
B----------------6-7/8--------8--10--11------10-11------8--------10----------10------------------------------------------------
G----------6/7-8-------8----8----10--12---12-----------9-------------------11--------------------------------------------------
D----7-8---------------------------------------------10----------10------12----------------------------------------------------
A------------------------------------------------------------------------------------------------------------------------------
E------------------------------------------------------------------------------------------------------------------------------

E------7-10-7-------------------------------------------------------------5-5------5-------------------------------------------
B-----7-------10-7---7-8----------7-10-8-7--------------------------------5-5--8-5----7-5--------------------------------------
G----7--------------7----9-7-----7---------9-7-----3\2---5-4h5p4--------------------------7-6-5--------------------------------
D---9--------------9---------9--9----------------------5---------7-5--------------------------4--5\----------------------------
A------------------------------------------------------------------------------------------------------------------------------
E---------------------------------------------------------------------4/5------------------------------------------------------

E----------3-------------------------------------------------------------------------------------------------------------------
B---------3--------7------8-10-8-7-8-7-------------------------------------------------5-------------------------------------3-
G--------4--------7--------------------9-8-7----------------------------------5-8-7\5-------7-5\4----------------0-----2-3-4---
D-----4/5--------8------9-----------------------10----9------------7-9----5-6------------7-----------4/5-----1h2---4/5---------
A-------------8/9-----10---------------------10----10---10--7-7-10------8--------------------------7------2h3------------------
E------------------------------------------------------------------------------------------------------------------------------

E------------------------------------3-6-6p3---3---------------------------------------------------------------------------------------------------------
B------------------------2/3-------4---------6---6p3---4p3------------------------------------------------------------------------------6--4--------------
G----2/3-------2/3-------------2/3-------------------5-----5p3p0---------------------------------------------2-5-3-2---2h3p2----2-------5--5--------------
D----4/5-5-4h5-----5-4/5-----5-----------------------------------5p3p0---5-4-3---------------------------2-5---------5--------5---3-3/7----4--------------
A----------------------------------------------------------------------5--------4-3---1----0h1p0----2h3--------------------------------------------------
E-----------------------------------------------------------------------------------5---3--------3-------------------------------------------------------

E--------------------------------------------2-3----5-5------------------------8-10-8---------------------------------------------------10-14/15\-----
B----------------6-5-3-----------------4-3-4-----4--6-6-------8----10-11------8-------11-10-8-------------------------------10--------10--------------
G---6/7-6-5\3----------6-5-4-3-----3-5--------------5-5----------------------9-----------------------------7----8--------10--------11-----------------
D---4/5-------5----------------4/5------------------------7/8---8--------9/10-----------------------8----7---10-------10--------12--------------------
A-------------------------------------------------------------------------------------------------9----8-----------12---------------------------------
E----------------------------------------------------------------------------------------------10-----------------------------------------------------

E------------------------------------------------------------------------------------------9-----------------------------------------------------------
B--12-13-15--------12-15-14-13----12h13p12----12--------------------------------7/8\--8h10----7/8\------5-8-7p5---5------------------------------------
G--------------14--------------14----------14----14-13-12----12--10---9---8----------------------------5--------7---7p5p0------------------------------
D-------------------------------------------------------------------------9-----8/9\----------7/8\----7-------------------7p5p0------------------------
A---------------------------------------------------------12/14--12--10--------------------------------------------------------------------------------
E-----------14------------------------------------------------------------------------------------------------------------------3\---------------------
 Comments (click here to add a non-facebook comment)
Home | FAQs | Privacy | Terms | Advertise | Contact
Top 100 Tab Sites