Give Kudos?
Are you sure you want to give kudos to axehappy?

Add To Songbook?
Are you sure you want to add this song to your songbook?


2,682 bands | 34,894 songs
Search: Register FREE! | Login
Browse Songs:
Browse Bands:
Tool Panel
Discuss This Song

1 2 3 4 5





Brad Paisley - Long Sermon (Solo)
Album: Who Needs Pictures-Part II (2008)
Submitter: axehappy (100) on 8/5/02 2 comments
Month Views: 85 | Total Views: 6,696
Moderator: Ray Terry | Report This Song?
Song Tools

Comment

Songbook

Kudos

Show Chords

Print

Brad Paisley  -  Long Sermon (lead solo)

By axehappy  -  axehappy at countrytabs.com


I'm still sure there's a B or G bender used in this solo, but I've finally managed
to come up with a tab that can be played using a standard guitar setup....
Far from easy, but it works!


*******************************************************************************************

b   =   bend                                            pbr   =   pre-bend & release

bh  =   bend & hold                                     x     =   dead note

r   =   release bend                                    /     =   slide up

~   =   vibrato                                         h     =   hammer-on

p   =   pulloff                                         \     =   slide down

*******************************************************************************************



   D                                    A

E-----------------------------------------------------------------------5-3-2-----------
D---3----3----3-3------3-3-------3-3-------------------------------3--2-2-2-3pbr-5-----
G-------------------------------------------------------2--------2-4-4b----------4-5~~--
D-5b-0-5b-0-5b-0-5pbr-b-0-5pbr-bh-x-5r------------2-4-2----5-2/4-----------------------
A-------------------------------------------0-2-3-4------5/7----------------------------
E---------------------------------------5/12--------------------------------------------

   E                                                     A           E

E-----------------------------9-------17--16-------------------------------------
D---5---5-7b-0--------10-0-12-12pbr----------12-----0h2-5-3-2h3p2---------------
G--7b--------4-0h2-0----------------16--16--16------------2-2-----2-0---0--------
D----4/6---------------------------------------16pbr----------------0h2-4\3-2p0-
A---------------------------------------------------------------------------4----
E-------------------0-0----------------------------------------------------------

   A                           D

E---------------------------------------|
D--------------------------------------|
G---------------------------------------|
D----------2-4bh-4-4-4r-p2-0-----------|
A----0-2-3-4-----------------4-3/5~~~---|
E--3b-----------------------------------|



 
 Comments (click here to add a non-facebook comment)
Good job, I can hardly beleive no one has rated or posted a comment for this one.


-mooman2679 | 3/27/2005
axehappy, great job on the tab. this has always been one of my fav. solo's brad has done. your right though he does use a g bender, he use's them in alot of his stuff. i have a crook custom tele with a g bender, not a paisley finish, but a red quilt top with a birdseye maple neck ( i highly recomend anyone to try the crook tele's if you think there,s no difference in them and fender,s. your way wrong . bill crook has to be one of the most down to earth people i,ve ever talked to. but keep in mind you can,t rush perfection, there,s a 20 week waiting list.) anyway,s i just transposed alot of the lick,s to my g bender and it sound's good.
-pegc30 | 9/5/2005
Home | FAQs | Privacy | Terms | Advertise | Contact
Top 100 Tab Sites