Give Kudos?
Are you sure you want to give kudos to axehappy?

Add To Songbook?
Are you sure you want to add this song to your songbook?


2,693 bands | 34,919 songs
Search: Register FREE! | Login
Browse Songs:
Browse Bands:
Tool Panel
Discuss This Song

1 2 3 4 5





Brad Paisley - Make A Mistake (Tab)
Album: Mud on the Tires (2003)
Submitter: axehappy (60) on 8/4/03 17 comments
Month Views: 340 | Total Views: 40,502
Moderator: Ray Terry | Report This Song?
Song Tools

Comment

Songbook

Kudos

Show Chords

Print

Brad Paisley  -  Make A Mistake (tab)

By axehappy  -  axehappy at countrytabs.com


This kicks in straight after the intro...check my other tab for that.. :)

Oh, and it's for the song, not the instrumental... ;)
Remember, all of these notes are played very quickly, but take it slow to start with, and learn
all the shapes.

If you need to see the main shapes for each chord or lyrics, check out my chord tab. :)



***************************************************************************************************



        C      Abdim  Am       Fm/B   Am      C9     F               Ddim   Am

E-----------0-----------7---5--3---1--0-------0-------------1----------------------
B-------1-3----5---5------5------1----1---3p1-----3-------1-----1-----6-6/8-5---5--
G-------0------4-4-------5---5--1---1---2-------3-----1h2-----2-------7-7/9-5-5----
D--------2---2--3---3/5-5--5-----------2-------2---2--3----3-3---3----6------7---7-
A---0-2-3--3-------------------2--2---0--0----3--3-------3-----3---3/5-5----0--0---
E--3-----------4--4----------------------------------1------1----------------------

   Abdim Am    Fmaj7       G/B                 C       Abdim    Am    Fm/B

E--------------------0--0---------------------------0-----------7---5-3---1--
B---3-5---1------0-1--0----2---2----------------1h3----5---5------5-----1----
G---4-------2--1-------------0---------0--------0------4-4-------5-----1---1-
D---3--3--2----3--3--3-3----0---0-------3p2p0------2----3---3/5-5--5---------
A--------0-0----3---3-3--3-3--3---0h1h2------2-3-----3----------------2--2---
E--4-4-------0-1---------------------------------------4--4------------------

   Am      C9     F               Ddim   Am     Abdim Am    Fmaj7  G/B  C

E--0-------0-------------1-----------------------------------------0----------------------
B--1---3p1-----3-------1-----1-----6-6/8-5---5---3-3h5--1------0-1---3---1---1------1-----
G----2-------3-----1h2-----2-------7-7/9-5-5-----4-4------2--1-------------0----0-----0---
D---2-------2---2--3----3-3---3----6------7---7--3------2----3--3--3------2---2-0h2--2----
A--0--0----3--3-------3-----3---3/5------0--0----------0-0----3---3--2---3--3------3---3--
E-----------------1------1----------------------4-4--------0-1----------------------------

   E             Am           E             Am             A

E---------0--------------------------0-------------------------------------------
B-------0-----3---1-0------1-------0-----3---0h1-0------1--1/2-1/2-3-5/9-5/7-5-3-
G---0h1-----1-----2---2--------0h1-----1-----2-----2-----------------------------
D---2----2-2---2--2--2---2-----2----2-2---2--2----2---2--2-1/2-1/2-4-5/7-5/7-5-4-
A------2-----2---0-0--0-0-0-0-----2-----2---0---0--0-0-0---0--0---0-0-0-0---0-0--
E--0------0-------------------0------0-------------------------------------------

   Am    Gm   Fm   Abdim C       Abdim  Am      Fm/B

E---8\---5\---3\--------------0-----------7---5-3---1--
B--10\---3\---1----5-3----1h3----5---5------5-----1----
G---9\---3\---1----4-4-4--0------4-4-------5-----1---1-
D--10\-x-5\-x-3\-x-3--3------2----3---3/5-5--5---------
A-----x----x----x--------3-----3----------------2--2---
E-------------------4------------4--4------------------

   Am      C9     F               Ddim   Am     Abdim Am    Fmaj7  G/B  C

E--0-------0-------------1-----------------------------------------0----------------------
B--1---3p1-----3-------1-----1-----6-6/8-5---5---3-3h5--1------0-1---3---1---1------1-----
G----2-------3-----1h2-----2-------7-7/9-5-5-----4-4------2--1-------------0----0-----0---
D---2-------2---2--3----3-3---3----6------7---7--3------2----3--3--3------2---2-0h2--2----
A--0--0----3--3-------3-----3---3/5------0--0----------0-0----3---3--2---3--3------3---3--
E-----------------1------1----------------------4-4--------0-1----------------------------

     Ddim   Am     Abdim  Am    Fmaj7   G/B Fmaj7  ?1 ?2  Fmaj7   G/B  ?3 (whoops, help me out)

E-------------------------------------0------------0--0---------0----------|
B-----6-6/8-5---5---3-3h5--1------0-1---3------0h1-5--2------0h1--3----2---|
G-----7-7/9-5-5-----4-4------2--1------------1-2---3--0----1-2---------0---|
D-----6------7---7--3------2----3--3--3------3--------3----3-----------3---|
A--3/5-5----0--0----------0-0----3---3--2-----3-------------3---3-2----4---|
E------------------4-4--------0-1-----------1-------------1----------------|


 Comments (click here to add a non-facebook comment)
My God, Axe, just when I think you can't possibly amaze me more you go and do something like this. Great job!!!
-urbanriffs | 8/4/2003
So much for not being able to do the picking axe
....lol.....That's nutz man!!! I'm still trying to play the intro smoothly, all most
there, but this is amazing!! I'm blown away!!!!
-eric wilson | 8/4/2003
I don't find em....lol...I write em.. :o)
Just thought I'd set that straight.. ;)
I just added a tab for the intro for this song anyways...gonna have a
listen to the solo now..
-axehappy | 8/6/2003
I've never heard Keith Urban playing Shelton
County Jail.... anyone got this song?
-axehappy | 8/10/2003
email it to me if you could please, cos I
don't have kazaa...my addy is at the top of
this tab.. :)
-axehappy | 8/12/2003
Thanks for hammering out this tab...saved me a TON of time!! Excellent job!
-tyekuhn | 10/14/2003
I have been wanting to try and play this song since I got the CD. This is great!!!
Thanks
-bernieef | 11/22/2003
Hey Axe! Awesome tab from what i can see, i
am having a little trouble with the
rhythmic sense of this song and for some
reason my sampler refuses to slow it down.
If anyone could give me a little insight
to the rhythms it would be greatly
appreciated. Thanks
-hillbily | 4/4/2004
Hey axe, ive been playing for a couple years and i was wondering what the easiest way to learn this, im trying to learn this for my girl and play it and i dont want to mess up. should i practice the chords or take my time picking it?
-willyjatemu | 12/3/2004
Practice the chord shapes first... no good picking if all the notes are wrong or dead
cos your fingers are in the wrong place.
-axehappy | 12/3/2004
Very great tab...I got one heck of a bad blister on my index and im getting one on my thumb and middle...

Too bad i can't rate...Beautiful tab
-mooman2679 | 12/6/2004
theres something wrong with you axe .... are you alien or something ?
-EP-Warlord | 12/31/2004
wow! that is one of the most difficult songs ive ever seen tabbed
-possumbiter | 2/27/2005
awesome dude

-sweethomealabam | 3/17/2005
can you make a soundbyte for this?
-tonyjay87 | 6/29/2005
the song blew me away til I saw your tab and realized it's the same picking pattern as "dust in the wind". Great job picking it apart like that. thanks.
-ganu | 11/18/2005
Uhhh can you say TITS?!!? Amazing riffage,.,amazing tabber!
-Metalsum | 12/30/2005
Home | FAQs | Privacy | Terms | Advertise | Contact
Top 100 Tab Sites