Give Kudos?
Are you sure you want to give kudos to WildCard76?

Add To Songbook?
Are you sure you want to add this song to your songbook?


2,626 bands | 34,394 songs
Search: Register FREE! | Login
Browse Songs:
Browse Bands:
Tool Panel
Discuss This Song

1 2 3 4 5





Brad Paisley - Me Neither (Tab)
Album: Who Needs Pictures (1999)
Submitter: WildCard76 (160) on 4/11/09
Month Views: 34 | Total Views: 4,312
Moderator: Ray Terry | Report This Song?
Song Tools

Comment

Songbook

Kudos

Show Chords

Print

ME NEITHER
Brad Paisley
Album: Who Needs Pictures

Intro:


      (C)                 (G)
E-----------------------------------------
D----------------------------------------
G----b7--7--r7---5------------------------
D--------------------b7--7--r7--5--------
A-----------------------------------------
E-----------------------------------------


   (G)     
E-----------------------------------------
D----------------------------------------
G----------------------0------------------
D-5\------------0-2---------0-5p0--------
A----------0-1h2-----3---3/7--------6h7---
E------2h3--------------------------------


  (C)
E---------------------------8(hold)-------
D----------------------------------------
G--------5p0--7p0--5p0--b7----------------
D-5--7-----------------------------------
A-----------------------------------------
E-----------------------------------------


LICK DURING THE CHORUS



"Me neither..."

E-----------------------------
D----------------------------
G------------5----------------
D-------------b5r--3---------
A-----------------------------
E-----------------------------


"believe me..."

E------------------------------
D------------8-----8----------
G----------------b7---7-7r-5---
D-----------------------------
A------------------------------
E------------------------------

 
 Comments (click here to add a non-facebook comment)
Home | FAQs | Privacy | Terms | Advertise | Contact
Top 100 Tab Sites