Give Kudos?
Are you sure you want to give kudos to axehappy?

Add To Songbook?
Are you sure you want to add this song to your songbook?


2,668 bands | 34,783 songs
Search: Register FREE! | Login
Browse Songs:
Browse Bands:
Tool Panel
Discuss This Song

1 2 3 4 5





Brad Paisley - Munster Rag (part 1) (Tab)
Album: Part II (2001)
Submitter: axehappy (106) on 3/13/02 12 comments
Month Views: 22 | Total Views: 12,246
Sound Byte: Listen
Moderator: Ray Terry | Report This Song?
Song Tools

Comment

Songbook

Kudos

Show Chords

Print

Brad Paisley - Munster Rag (part 1)

By axehappy - axehappy at countrytabs.com

This part is from the beginning of the song up to the fiddle solo,
which occurs at around [1:08] on the recording.

Enjoy!

***********************************************************************

\   =   slide down                            /   =   slide up

x   =   dead note                             h   =   hammer on

p   =   pulloff                               b   =   bend

~   =   vibrato                               bh  =   bend and hold

r   =   release bend                          

***********************************************************************



E-----------------------------------------------------------------
B-----------------------------------------------------------------
G-----------------------------------------------------------------
D-----------------------------------------------------------------
A------------0-2------0-2------0-3-2-0-2-0-0--------0-2------0-2--
E--12\--0-2-3----0-2-3----0-2-3-------3---3-2--0-2-3----0-2-3-----


E--------------------------------------------------------------
B--------------------------------------------------------------
G--------------------------------------------------------------
D--------------------------------------------------------------
A--3-2-0-2-0-----------------0-2------0-2------0-3-2-0-2-0-0---
E-------3---3-2-0--12\--0-2-3----0-2-3----0-2-3-------3---3-2--


E-------------------------------------------------------------
B-------------------------------------------------------------
G-------------------------------------------------------------
D-------------------------------------------------------7-9\--
A-------0-2------0-3-2-0-2-0-----------------0-2-/7-9-10------
E--0-2-3----0-2-3-------3---3-2-0--12\--0-2-3-----------------


E----------------------------------------------------------0--
B----------------------------------------------------------0--
G-------------------------------------------------------------
D---------------------------------------7-9\------------------
A-------0-3-2-0-2-0-0--------0-2-/7-9-10-----3-2-0-2-0--------
E--0-2-3-------3---3-2--0-2-3---------------------3---3-2-0---


E-----------------------------------------------------0----------------
B-----------------------------------------------------0----------------
G-----2----0----2--2h4-4-4p2-2h4-4--2h4-4-4p2-2h4-4--0-----2----0----2-
D-----0----0----2--2h4-4-4p2-2h4-4--2h4-4-4p2-2h4-4--2-----0----0----2-
A------------0-x-------------------------------------2------------0-x--
E--2-x--3-x------------------------------------------0--2-x--3-x-------

                                              rake 
E---------------------------------------------------------------------
B------------------------------------------1-----------------------0--
G--2h4-4-4p2-2h4-4--2h4-4-4p2-2h4-4--------0-----------------------0--
D--2h4-4-4p2-2h4-4--2h4-4-4p2-2h4-4--1/2-2-2-----2-4-5-5-4-2-2-0---0--
A------------------------------------2/3-3-3----3--5-7-7-5-3-3-2-2----
E------------------------------------2/3-3-3---3-----------------3----

  rake                                   
E--------------------------------------------------------------
B----------0---------3-----------------------------------------
G--0-------0---------0---------------------3b~~--3bh-3r--------
D---0--0---0---------2---2-4-5-5-4-2-2-1---1------------5~-4~--
A----3-2-2--2---2-3-3----3-5-7-7-5-3-3-2-2------2--------------
E--------3---3-------------------------------------------------


E-----------------------------------------------------------
B-----------------------------------------------------------
G-----------------------------------------------------------
D-----------------------------------------------------------
A-------0-2------0-2------0-3-2-0-2-0-0-------0-2------0-2--
E--0-2-3----0-2-3----0-2-3-------3---3-2-0-2-3----0-2-3-----


E-------------------|
B-------------------|
G-------------------|
D-------------------|
A--3-2-0-2-0--------|
E-------3---3-2-0---|

 Comments (click here to add a non-facebook comment)
Awesome job Axe!! Great soundbyte too, you rock!
-Shantel | 11/30/2002
sounded good,but it should be noted that every note is picked on the
opening theme.
-twangzilla | 1/30/2003
Yep....that's why I didn't indicate any
hammer-ons or pulloffs in the tab...although
these do make it easier if anyone's finding
it difficult.
-axehappy | 1/30/2003
hey axehappy, good job, great tab, but i was
wondering if you could go back and add
measure bars to the tab to make it easier to
read and know what the not values are. i
would greatly appreciate it if you could do
the measure bars to your munster rag part II
even more than part I. look at my tab of
brad's mud on the tires-intro w/o capo. i
use a program that converts it into the html
file to load on to this site, and it adds
the measure bars and the time values, and i
would love it if you could do it to munster
rag part II. it would make it a whole lot
easier to read altho it is already a great
tab.
thanx
cntyotlw
-cntyotlw | 10/4/2003
very amazing tab. Your sound byte is good also, considering its on a acoustic. Sounds great still... Keep up good work
-mooman2679 | 6/29/2004
hey axe, what kind of acoustic guitar do you have?
-TGcountry | 8/17/2004
A crappy one that I found in someone's trash
one day... doesn't even have a name on the
headstock.. :-)
-axehappy | 8/18/2004
hey sometimes its whatever you can get your hands on right. i think your just so good that you could make any guitar sound good. nice tab by the way.:-)
-TGcountry | 8/27/2004
Axe is there any chance I could get you to tab out the whole song Of Keith Urbans Raining On Sunday The parts he plays I mean I'd Appreciate it alot
-jdgreen06 | 11/30/2004
HOw do you and logan tab this stuff out... i can't hear each individual note that quickly... is there something that can slow it down for you??? either way its amazing.. super hard to play without cheating with hammer ons.... havin trouble pickin that fast

-brianhersh | 3/5/2005
make sure your pickin both ways....
up and down... its tha key to
playin it as fast as it is played
on the cd... brad's bad
-parmorrow | 7/10/2005
hey I hve never even heard the song can sombody send me a sound byte my address is bryan_guenther04@yahoo.com thanx
-bryan_guenther | 2/16/2006
Home | FAQs | Privacy | Terms | Advertise | Contact
Top 100 Tab Sites