Give Kudos?
Are you sure you want to give kudos to WildCard76?

Add To Songbook?
Are you sure you want to add this song to your songbook?


2,632 bands | 34,459 songs
Search: Register FREE! | Login
Browse Songs:
Browse Bands:
Tool Panel
Discuss This Song

1 2 3 4 5





Brad Paisley - Online (Intro)
Album: 5th Gear (2007)
Submitter: WildCard76 (257) on 4/4/09 1 comment
Month Views: 19 | Total Views: 3,563
Moderator: Ray Terry | Report This Song?
Song Tools

Comment

Songbook

Kudos

Show Chords

Print

ONLINE
Brad Paisley
Submitted by: Christopher R
7:13 PM 4/4/2009

Intro:

    F         G                  C   
E---------------------------------------------------
B-----------3---------3----------------------------
G--------------0---------0-------0------------------
D-------3/5-----0--3------------0--2--0----0h2---0-
A---------------------------3-------------3---------
E--1-1-1--------------------------------------------


        G                C                F
E---------------------------------------------------
B------3--------3----------------------------------
G---------0--------0------0-------------------------
D-3/5------0--3----------0--2--0----0h2------------
A----------------------3-----------3----------------
E-----------------------------------------1-1-1-----


       G                  C              G 
E---------------------------------------------------
B------3--------3------------------------3---------
G---------0--------0------0-----------------0-------
D-3/5------0--3----------0--2----0---3/5-----0--3--
A----------------------3----------------------------
E---------------------------------------------------


           C 
E---------------------------------------------------
B-3------------------------------------------------
G----0-----0--0-------------------------------------
D---------2--2-------------------------------------
A-------3-----------b3r--2--------------------------
E----------------3---------3------------------------

 
 Comments (click here to add a non-facebook comment)
I have a question. Are you tuning your B string to D or is that a typo?
-tpmadden | 4/6/2009
Home | FAQs | Privacy | Terms | Advertise | Contact
Top 100 Tab Sites